Wednesday 13 - My Demise tab

Intro:

D|----------------------------------------|
A|----------------------------------------|
F|----------------------------------------|
C|-7-(x8)-5-(x8)-3-(8x)--3//////5--2------|(x8)
G|-7-(x8)-3-(x8)-3-(8x)--3//////5--2------|(x8)
C|-7-(x8)--------3-(8x)--3//////5--2------|(x8)

Verse:

D|----------------------------------------|
A|----------------------------------------|
F|----------------------------------------|
C|-7-(x8)-5-(x8)-3-(8x)--3//////5--2------|(x8)
G|-7-(x8)-3-(x8)-3-(8x)--3//////5--2------|(x8)
C|-7-(x8)--------3-(8x)--3//////5--2------|(x8)

Pre-Chorus:

D|---------------------------------------------------------------------------|
A|---------------------------------------------------------------------------|
F|---------------------------------------------------------------------------|
C|--3--3---3-3-3-3-3//////5--2--2--2-2-2-2-2-2-2--3--3--3-3-3-3-3//////5--2--|
G|--3--3---3-3-3-3-3//////5--2--2--2-2-2-2-2-2-2--3--3--3-3-3-3-3//////5--2--|
C|--3--3---3-3-3-3-3//////5--2--2--2-2-2-2-2-2-2--3--3--3-3-3-3-3//////5--2--|

Chorus:

D|-------------------------------------------------------------------|
A|-------------------------------------------------------------------|
F|-------------------------------------------------------------------|
C|--5-(x8)-3-(x8)-5-(x8)3-(x8)-5-(x8)--3-(x8)--5-(x4)-3-(x4)-5-(x8---|
G|--3-(x8)-3-(x8)-3-(x8)3-(x8)-3-(x8)--3-(x8)--5-(x4)-3-(x4)-3-(x8---|
C|---------3-(x8)-------3-(x8)---------3-(x8)--5-(x4)-3-(x4)---------|

D|--------------------------------------------------|
A|--------------------------------------------------|
F|--------------------------------------------------|
C|--5-(x4)--3-(x4)--2--2--2--2--2--2--2--2--2-2--2--|
G|--5-(x4)--3-(x4)--2--2--2--2--2--2--2--2--2-2--2--|
C|--5-(x4)--3-(x4)--2--2--2--2--2--2--2--2--2-2--2--|
Tap to rate this tab
 
# A B C D E F G H I J K L M N O P Q R S T U V W X Y Z