Song name
# A B C D E F G H I J K L M N O P Q R S T U V W X Y Z

Wednesday 13 - Skeletons tab

----------------------------------------------------------------------------
                           Wednesday 13 - Skeletons
----------------------------------------------------------------------------

Tabbed by: Metalrock4ever

Tuning: CGCFAD

Any chords like 13131313 or 11111111 are either 13's or 11's. Chords on fret 1 are 
1111. Just a little reminder!

Intro:
(Wait till after the piano intro)
D|-------------------------|    
A|-------------------------|     
F|-------------------------|
C|-3333-6666-13131313-8888-| x2  (They are 13's)
G|-3333-6666-13131313-8888-|     (Can be 1's)
C|-3333-6666-13131313-8888-|

Solo Part:
D|------------------------------------|
A|------------------------------------|
F|------------------------------------|
C|-3-6-5-3~-3-6-5-3~-3-6-5-3-8-6-5-3~-| x2
G|------------------------------------|
C|------------------------------------|

Both Parts end on:
D|----|     D|----|
A|----|     A|----|
F|----|     F|----|
C|-3~-| or  C|-3~-|
G|-3~-|     G|----|
C|-3~-|     C|----|


Verse:
D|-------------------------|
A|-------------------------|
F|-------------------------|
C|-3333-6666-13131313-8888-|  x2
G|-3333-6666-13131313-8888-|
C|-3333-6666-13131313-8888-|

Solo Part:
D|------------------------------------|
A|------------------------------------|
F|------------------------------------|
C|-3-6-5-3~-3-6-5-3~-3-6-5-3-8-6-5-3~-| x2
G|------------------------------------|
C|------------------------------------|


Pre-Chorus:
D|---------------------------|
A|---------------------------|
F|---------------------------|
C|-6~-8~-3~-3~-6~-8~-11~-10~-|
G|-6~-8~-3~-3~-6~-8~-11~-10~-|
C|-6~-8~-3~-3~-6~-8~-11~-10~-|

Solo Part:
D|------------------------------------------|
A|------------------------------------------|
F|------------------------------------------|
C|-6~-8~-3-6-5-3~-3-6-5-3~-6~-8~-10/11~-10~-|
G|------------------------------------------|
C|------------------------------------------|


Chorus:
D|-------------------------|    
A|-------------------------|     
F|-------------------------|
C|-3333-6666-13131313-8888-| x2  
G|-3333-6666-13131313-8888-|     
C|-3333-6666-13131313-8888-|

Chorus Solo Part:
D|------------------------------------|
A|------------------------------------|
F|------------------------------------|
C|-3-6-5-3~-3-6-5-3~-3-6-5-3-8-6-5-3~-| x2
G|------------------------------------|
C|------------------------------------|

Both Parts end on:
D|----|     D|----|
A|----|     A|----|
F|----|     F|----|
C|-3~-| or  C|-3~-|
G|-3~-|     G|----|
C|-3~-|     C|----|


Verse 2:
D|-------------------------|
A|-------------------------|     
F|-------------------------|
C|-3333-6666-13131313-8888-|  x2
G|-3333-6666-13131313-8888-|
C|-3333-6666-13131313-8888-|

Solo Part:
D|------------------------------------|
A|------------------------------------|
F|------------------------------------|
C|-3-6-5-3~-3-6-5-3~-3-6-5-3-8-6-5-3~-| x2
G|------------------------------------|
C|------------------------------------|


Pre-Chorus:
D|---------------------------|
A|---------------------------|
F|---------------------------|
C|-6~-8~-3~-3~-6~-8~-11~-10~-|
G|-6~-8~-3~-3~-6~-8~-11~-10~-|
C|-6~-8~-3~-3~-6~-8~-11~-10~-|

Solo Part:
D|------------------------------------------|
A|------------------------------------------|
F|------------------------------------------|
C|-6~-8~-3-6-5-3~-3-6-5-3~-6~-8~-10/11~-10~-|
G|------------------------------------------|
C|------------------------------------------|


Chorus 3:
D|-------------------------|    
A|-------------------------|   
F|-------------------------|
C|-3333-6666-13131313-8888-| x2  
G|-3333-6666-13131313-8888-|     
C|-3333-6666-13131313-8888-|

Chorus Solo Part:
D|------------------------------------|
A|------------------------------------|
F|------------------------------------|
C|-3-6-5-3~-3-6-5-3~-3-6-5-3-8-6-5-3~-| x2
G|------------------------------------|
C|------------------------------------|


Pre-Bridge:
D|------------------------------------------------------|
A|------------------------------------------------------|   
F|------------------------------------------------------|    
C|-6666-13131313-8888-3333--6666-8888-11111111-10101010-|  
G|-6666-13131313-8888-3333--6666-8888-11111111-10101010-|
C|-6666-13131313-8888-3333--6666-8888-11111111-10101010-|

Solo Part:
D|----------------------------------|
A|----------------------------------|
F|----------------------------------|
C|-6~-13~-8~-9/8/6-3~-6~-8~-11~-10~-|
G|----------------------------------|
C|----------------------------------|


Bridge:
D|-------------------------|    
A|-------------------------|   
F|-------------------------|
C|-3333-6666-13131313-8888-| x2  
G|-3333-6666-13131313-8888-|     
C|-3333-6666-13131313-8888-|

Solo Part:
D|----------------------------------4--------------------|
A|-6~-9~-13~-11~-13\11-9-6~-6~-9-4~---4~-----------------|
F|---------------------------------------5h6-5h6-5h6-5h6-|
C|-------------------------------------------------------|
G|-------------------------------------------------------|
C|-------------------------------------------------------|


Pre-Chorus:
D|---------------------------|
A|---------------------------|
F|---------------------------|
C|-6~-8~-3~-3~-6~-8~-11~-10~-|
G|-6~-8~-3~-3~-6~-8~-11~-10~-|
C|-6~-8~-3~-3~-6~-8~-11~-10~-|

Solo Part:
D|------------------------------------------|
A|------------------------------------------|
F|------------------------------------------|
C|-6~-8~-3-6-5-3~-3-6-5-3~-6~-8~-10/11~-10~-|
G|------------------------------------------|
C|------------------------------------------|

Final Chorus:
D|-------------------|          D|-------------------------|    
A|-------------------|          A|-------------------------|   
F|-------------------|          F|-------------------------|
C|-33--66--1313--88--|  Then... C|-3333-6666-13131313-8888-| x3
G|-33--66--1313--88--|          G|-3333-6666-13131313-8888-|     
C|-33--66--1313--88--|          C|-3333-6666-13131313-8888-|
  
Solo Part:
D|-------------------|          D|------------------------------------|
A|-------------------|          A|------------------------------------|
F|-------------------|  Then... F|------------------------------------|
C|-33--66--1313--88--|          C|-3-6-5-3~-3-6-5-3~-3-6-5-3-8-6-5-3~-| 
G|-------------------|          G|------------------------------------|
C|-------------------|          C|------------------------------------|

Solo Part 2:
D|----------------------------------------------------|
A|---------------------------------------11-----------|
F|-10-13-12-10~-10-13-12-10~-10-13-12-10----13-12-10~-|
C|----------------------------------------------------|  x2
G|----------------------------------------------------|
C|----------------------------------------------------|


End with:
|----|
|----|
|----|
|-3~-|
|-3~-|
|-3~-|

Solo ending:
(Get slower each time you play it)
D|----------------------------------------|
A|----------------------------------------|
F|-10-13-12-10~-10-13-12-10~-10-13-12-10~-|
C|----------------------------------------|
G|----------------------------------------|
C|----------------------------------------|


************************************

| /   slide up
| \   slide down
| h   hammer-on
| ~   vibrato

************************************

If you have any comments/corrections, please write it in the comments box or on my 
profile page. I'll read it either way.
Good luck and enjoy!
Tap to rate this tab
# A B C D E F G H I J K L M N O P Q R S T U V W X Y Z