Song name
# A B C D E F G H I J K L M N O P Q R S T U V W X Y Z

Wednesday 13 - One Knife Stand tab

----------------------------------------------------------------------------
                       Wednesday 13 - One Knife Stand
----------------------------------------------------------------------------

Tabbed by: Metalrock4ever

Tuning: DADGBE

Intro:
E|---------------------|
B|---------------------|
G|---------------------|
D|-7777-4444-0000-2222-|  x4
A|-7777-4444-0000-2222-|
D|-7777-4444-0000-2222-|

Solo/Riff:
(Not sure about the right pitch. Play one or the other)
E|--------------------------------------------------|
B|-10~-10-12-14-10~-10-12-14-10~-10-12-14-12/14-12b-|
G|--------------------------------------------------|
D|--------------------------------------------------|  x4
A|--------------------------------------------------|
D|--------------------------------------------------|

or

E|---------------------------------------|
B|---------------------------------------|
G|---------------------------------------|
D|-7~-7-9-11-7~-7-9-11-7~-7-9-11-9/11-9b-|  x4
A|---------------------------------------|
D|---------------------------------------|


Verse:
E|-------------------------------------|
B|-------------------------------------|
G|-------------------------------------|
D|-7x7x7x7x-4x4x4x4x-0x0x0x0x-2x2x2x2x-|  x4
A|-7x7x7x7x-4x4x4x4x-0x0x0x0x-2x2x2x2x-|
D|-7x7x7x7x-4x4x4x4x-0x0x0x0x-2x2x2x2x-|


Pre-Chorus:
(Listen to music for rhythm)
|---------------------------------------|
|---------------------------------------|
|---------------------------------------|
|-0000-44-2222-44-22-0000-44-2222-44-66-|
|-0000-44-2222-44-22-0000-44-2222-44-66-|
|-0000-44-2222-44-22-0000-44-2222-44-66-|


Chorus:
E|---------------------|
B|---------------------|
G|---------------------|
D|-7777-4444-0000-2222-|  x4
A|-7777-4444-0000-2222-|
D|-7777-4444-0000-2222-|

Solo Part:
(Go up to see the riff down an octave)
E|--------------------------------------------------|
B|-10~-10-12-14-10~-10-12-14-10~-10-12-14-12/14-12b-|
G|--------------------------------------------------|
D|--------------------------------------------------|  x4
A|--------------------------------------------------|
D|--------------------------------------------------|


Verse 2:
E|-------------------------------------|
B|-------------------------------------|
G|-------------------------------------|
D|-7x7x7x7x-4x4x4x4x-0x0x0x0x-2x2x2x2x-|  x4
A|-7x7x7x7x-4x4x4x4x-0x0x0x0x-2x2x2x2x-|
D|-7x7x7x7x-4x4x4x4x-0x0x0x0x-2x2x2x2x-|


Pre-Chorus 2:
(Listen to music for rhythm)
|---------------------------------------|
|---------------------------------------|
|---------------------------------------|
|-0000-44-2222-44-22-0000-44-2222-44-66-|
|-0000-44-2222-44-22-0000-44-2222-44-66-|
|-0000-44-2222-44-22-0000-44-2222-44-66-|


Chorus 2:
E|---------------------|
B|---------------------|
G|---------------------|
D|-7777-4444-0000-2222-|  x4
A|-7777-4444-0000-2222-|
D|-7777-4444-0000-2222-|

Solo Part:
(Go up to see the riff down an octave)
E|--------------------------------------------------|
B|-10~-10-12-14-10~-10-12-14-10~-10-12-14-12/14-12b-|
G|--------------------------------------------------|
D|--------------------------------------------------|  x4
A|--------------------------------------------------|
D|--------------------------------------------------|


Bridge:
E|---------------------|
B|---------------------|
G|---------------------|
D|-7777-4444-0000-2222-|  x4
A|-7777-4444-0000-2222-|
D|-7777-4444-0000-2222-|

Solo Part:
(Not sure about the harmonies. Play the notes on the G string if 
you think the harmony is wrong)
E|-----------------------------------------------|
B|-------------------------------------10-8------|
G|-9999-6666-7-6-0/2-4~-9999-6666-7777------9-9~-|
D|-7777-4444------------7777-4444-7777-----------|
A|-----------------------------------------------|
D|-----------------------------------------------|

Solo Part 2:
E|----------------------------------------12-10---------12~-14~-16~-17~-|
B|-10~-10-12-14-10~-10-12-14-10~-10-12-14-------14--10~-----------------|
G|----------------------------------------------------------------------|
D|----------------------------------------------------------------------|
A|----------------------------------------------------------------------|
D|----------------------------------------------------------------------|

or

E|--------------------------------------------------------|
B|--------------------------------------------------------|
G|-------------------------------9-7-------9~-11~-13~-14~-|
D|-7~-7-9-11-7~-7-9-11-7~-7-9-11-----11-7~----------------|
A|--------------------------------------------------------|
D|--------------------------------------------------------|


Pre-Chorus 3:
(Listen to music for rhythm)
|---------------------------------------|
|---------------------------------------|
|---------------------------------------|
|-0000-44-2222-44-22-0000-44-2222-44-66-|
|-0000-44-2222-44-22-0000-44-2222-44-66-|
|-0000-44-2222-44-22-0000-44-2222-44-66-|


Final Chorus:
(Repeat and fade out)
E|---------------------|
B|---------------------|
G|---------------------|
D|-7777-4444-0000-2222-|  x8
A|-7777-4444-0000-2222-|
D|-7777-4444-0000-2222-|

Solo Part:
E|--------------------------------------------------|
B|-10~-10-12-14-10~-10-12-14-10~-10-12-14-12/14-12b-|
G|--------------------------------------------------|
D|--------------------------------------------------|  x8
A|--------------------------------------------------|
D|--------------------------------------------------|

or

E|---------------------------------------|
B|---------------------------------------|
G|---------------------------------------|
D|-7~-7-9-11-7~-7-9-11-7~-7-9-11-9/11-9b-|  x8
A|---------------------------------------|
D|---------------------------------------|


************************************

| /   slide up
| \   slide down
| ~   vibrato
| x   Mute note
| b   Bend

************************************

If you have any corrections/comments, please say in either the
comments box or on my profile page. Good luck and enjoy!        
Tap to rate this tab
# A B C D E F G H I J K L M N O P Q R S T U V W X Y Z