Guitaretab - guitar tabs
Song name
# A B C D E F G H I J K L M N O P Q R S T U V W X Y Z

Wednesday 13 - Scream Baby Scream tab

----------------------------------------------------------------------------
                        Wednesday 13 - Scream Baby Scream
----------------------------------------------------------------------------

Tabbed by: Metalrock4ever

Tuning: CGCFAD

Intro:
D|-----------------------------|
A|-----------------------------|
F|-----------------------------|
C|-0x0x-3x3x0x0x-6x6x5x5x-3x3x-|  x6
G|-0x0x-3x3x0x0x-6x6x5x5x-3x3x-|
C|-0x0x-3x3x0x0x-6x6x5x5x-3x3x-|

D|-------------------------------------------|
A|-------------------------------------------|
F|-------------------------------------------|
C|-0x0x-3x3x0x0x-6x6x5x5x-3x3x-0x0x-3x3x3x-0-|
G|-0x0x-3x3x0x0x-6x6x5x5x-3x3x-0x0x-3x3x3x-0-|
C|-0x0x-3x3x0x0x-6x6x5x5x-3x3x-0x0x-3x3x3x-0-|

Solo Part:
D|------------------|
A|--------9-8-------|
F|-7-10-7-----10-7~-|
C|------------------|  x2
G|------------------|
C|------------------|

D|---------------------------|
A|--------9-8----------------|
F|-7-10-7-----10-7~-7-1010-7-|
C|---------------------------|
G|---------------------------|
C|---------------------------|


Verse:
(Listen to music for rhythm)
D|------------------------------------------|
A|------------------------------------------|
F|------------------------------------------|
C|-0x0x0x0x0x-0x0x3x-0x0x0x0x0x-0x0x0x-2/3~-|   x4
G|-0x0x0x0x0x-0x0x3x-0x0x0x0x0x-0x0x0x-2/3~-|
C|-0x0x0x0x0x-0x0x3x-0x0x0x0x0x-0x0x0x-2/3~-|

D|-------------------------------------|
A|-------------------------------------|
F|-------------------------------------|
C|-0x0x0x0x-0x0x0x3x-0x0x0x0x-0x0x0x3x-|  x4
G|-0x0x0x0x-0x0x0x3x-0x0x0x0x-0x0x0x3x-|
C|-0x0x0x0x-0x0x0x3x-0x0x0x0x-0x0x0x3x-|


Pre-Chorus:
D|-----------------------------|
A|-----------------------------|
F|-----------------------------|
C|-0x0x-3x3x0x0x-6x6x5x5x-3x3x-|  x4
G|-0x0x-3x3x0x0x-6x6x5x5x-3x3x-|
C|-0x0x-3x3x0x0x-6x6x5x5x-3x3x-|

Solo Part:
D|------------------|
A|--------9-8-------|
F|-7-10-7-----10-7~-|
C|------------------|  x4
G|------------------|
C|------------------|


Chorus:
D|-------------------------------------------------------|
A|-------------------------------------------------------|
F|-------------------------------------------------------|
C|-0x0x0x0x-0x0x0x0x-3x3x3x3x-3x3x3x3x-2x2x2x2x-2x2x2x2x-|
G|-0x0x0x0x-0x0x0x0x-3x3x3x3x-3x3x3x3x-2x2x2x2x-2x2x2x2x-|
C|-0x0x0x0x-0x0x0x0x-3x3x3x3x-3x3x3x3x-2x2x2x2x-2x2x2x2x-|

D|-----------------------------|
A|-----------------------------|
F|-----------------------------|
C|-0x0x-3x3x0x0x-6x6x5x5x-3x3x-|  x2
G|-0x0x-3x3x0x0x-6x6x5x5x-3x3x-|
C|-0x0x-3x3x0x0x-6x6x5x5x-3x3x-|

D|-------------------------------------------|
A|-------------------------------------------|
F|-------------------------------------------|
C|-0x0x-3x3x0x0x-6x6x5x5x-3x3x-0x0x-3x3x3x-0-|
G|-0x0x-3x3x0x0x-6x6x5x5x-3x3x-0x0x-3x3x3x-0-|
C|-0x0x-3x3x0x0x-6x6x5x5x-3x3x-0x0x-3x3x3x-0-|


Verse 2:
D|------------------------------------------|
A|------------------------------------------|
F|------------------------------------------|
C|-0x0x0x0x0x-0x0x3x-0x0x0x0x0x-0x0x0x-2/3~-|   x4
G|-0x0x0x0x0x-0x0x3x-0x0x0x0x0x-0x0x0x-2/3~-|
C|-0x0x0x0x0x-0x0x3x-0x0x0x0x0x-0x0x0x-2/3~-|

D|-------------------------------------|
A|-------------------------------------|
F|-------------------------------------|
C|-0x0x0x0x-0x0x0x3x-0x0x0x0x-0x0x0x3x-|  x4
G|-0x0x0x0x-0x0x0x3x-0x0x0x0x-0x0x0x3x-|
C|-0x0x0x0x-0x0x0x3x-0x0x0x0x-0x0x0x3x-|

[ Tab from: http://www.guitaretab.com/w/wednesday-13/323347.html ]
Pre-Chorus:
D|-----------------------------|
A|-----------------------------|
F|-----------------------------|
C|-0x0x-3x3x0x0x-6x6x5x5x-3x3x-|  x4
G|-0x0x-3x3x0x0x-6x6x5x5x-3x3x-|
C|-0x0x-3x3x0x0x-6x6x5x5x-3x3x-|

Solo Part:
D|------------------|
A|--------9-8-------|
F|-7-10-7-----10-7~-|
C|------------------|  x4
G|------------------|
C|------------------|


Chorus 2:
D|-------------------------------------------------------|
A|-------------------------------------------------------|
F|-------------------------------------------------------|
C|-0x0x0x0x-0x0x0x0x-3x3x3x3x-3x3x3x3x-2x2x2x2x-2x2x2x2x-|
G|-0x0x0x0x-0x0x0x0x-3x3x3x3x-3x3x3x3x-2x2x2x2x-2x2x2x2x-|
C|-0x0x0x0x-0x0x0x0x-3x3x3x3x-3x3x3x3x-2x2x2x2x-2x2x2x2x-|

D|-----------------------------|
A|-----------------------------|
F|-----------------------------|
C|-0x0x-3x3x0x0x-6x6x5x5x-3x3x-|  x2
G|-0x0x-3x3x0x0x-6x6x5x5x-3x3x-|
C|-0x0x-3x3x0x0x-6x6x5x5x-3x3x-|

D|-------------------------------------------|
A|-------------------------------------------|
F|-------------------------------------------|
C|-0x0x-3x3x0x0x-6x6x5x5x-3x3x-0x0x-3x3x3x-0-|
G|-0x0x-3x3x0x0x-6x6x5x5x-3x3x-0x0x-3x3x3x-0-|
C|-0x0x-3x3x0x0x-6x6x5x5x-3x3x-0x0x-3x3x3x-0-|

Bridge:
D|-------------------------------------|
A|-------------------------------------|
F|-------------------------------------|
C|-0x0x0x0x-0x0x0x0x-3x3x3x3x-3x3x3x3x-|   x4
G|-0x0x0x0x-0x0x0x0x-3x3x3x3x-3x3x3x3x-|
C|-0x0x0x0x-0x0x0x0x-3x3x3x3x-3x3x3x3x-|

D|-----------------------------|
A|-----------------------------|
F|-----------------------------|
C|-0x0x-3x3x0x0x-6x6x5x5x-3x3x-|  x2
G|-0x0x-3x3x0x0x-6x6x5x5x-3x3x-|
C|-0x0x-3x3x0x0x-6x6x5x5x-3x3x-|

Solo Part:
D|---10---10---10---10----13----13----13----13-|
A|---------------------------------------------|
F|-7----7----7----7----10----10----10----10----|
C|---------------------------------------------|  x2
G|---------------------------------------------|
C|---------------------------------------------|

D|---------------------|
A|-3/15~-3333333333333-| (Keep playing on the third fret)
F|---------------------|
C|---------------------|
G|---------------------|
C|---------------------|

Final Chorus:
D|-------------------------------------------------------|
A|-------------------------------------------------------|
F|-------------------------------------------------------|
C|-0x0x0x0x-0x0x0x0x-3x3x3x3x-3x3x3x3x-2x2x2x2x-2x2x2x2x-|
G|-0x0x0x0x-0x0x0x0x-3x3x3x3x-3x3x3x3x-2x2x2x2x-2x2x2x2x-|
C|-0x0x0x0x-0x0x0x0x-3x3x3x3x-3x3x3x3x-2x2x2x2x-2x2x2x2x-|

D|-----------------------------|
A|-----------------------------|
F|-----------------------------|
C|-0x0x-3x3x0x0x-6x6x5x5x-3x3x-|  x4
G|-0x0x-3x3x0x0x-6x6x5x5x-3x3x-|
C|-0x0x-3x3x0x0x-6x6x5x5x-3x3x-|

D|------------------------------------------|
A|------------------------------------------|
F|------------------------------------------|
C|-0x0x0x0x0x-0x0x3x-0x0x0x0x0x-0x0x0x-2/3~-|   x4
G|-0x0x0x0x0x-0x0x3x-0x0x0x0x0x-0x0x0x-2/3~-|
C|-0x0x0x0x0x-0x0x3x-0x0x0x0x0x-0x0x0x-2/3~-|

************************************

| /   slide up
| \   slide down
| ~   vibrato
| x   Mute note

************************************

As you can see, the rhythm guitar is mainly palm muted. There are some areas where a 
solo is being played
(mainly long held notes). If you want me to include them, just ask. Any 
comments/corrections please say in
either my profile page or in the comments box. Good luck and enjoy!
Related for Scream Baby Scream tab
Scream Baby Scream chords by Wednesday 13