Song name
# A B C D E F G H I J K L M N O P Q R S T U V W X Y Z

Wednesday 13 - Put Your Death Mask On tab

----------------------------------------------------------------------------
                       Wednesday 13 - Put Your Death Mask On
----------------------------------------------------------------------------

Tabbed by: Metalrock4ever

Tuning: CGCFAD

Listen to the music for the rhythm.

Intro:
D|--------------------------|
A|-----------------------4~-|
F|--------------------------|
C|-6-5-0x0x0x0x-0x0x0x0x----|  x2
G|-6-5-0x0x0x0x-0x0x0x0x----|
C|-6-5-0x0x0x0x-0x0x0x0x----|

D|-------------------------------------------------|
A|-------------------------------------------------|
F|-------------------------------------------------|
C|-6-5-0x0x0x0x-6-5-0x0x0x0x-6-5-0x0x0x0x-0x-0x-0x-|
G|-6-5-0x0x0x0x-6-5-0x0x0x0x-6-5-0x0x0x0x-0x-0x-0x-|
C|-6-5-0x0x0x0x-6-5-0x0x0x0x-6-5-0x0x0x0x-0x-0x-0x-|

D|--------------------------|
A|-----------------------4~-|
F|--------------------------|
C|-6-5-0x0x0x0x-0x0x0x0x----|  x2
G|-6-5-0x0x0x0x-0x0x0x0x----|
C|-6-5-0x0x0x0x-0x0x0x0x----|

D|----------------------------------------------------|
A|-------------------------------------------------4~-|
F|----------------------------------------------------|
C|-6-5-0x0x0x0x-6-5-0x0x0x0x-6-5-0x0x0x0x-0x0x0x0x----|
G|-6-5-0x0x0x0x-6-5-0x0x0x0x-6-5-0x0x0x0x-0x0x0x0x----|
C|-6-5-0x0x0x0x-6-5-0x0x0x0x-6-5-0x0x0x0x-0x0x0x0x----|


Verse:
D|-----------------------|
A|-----------------------|
F|-----------------------|
C|-6-5-0x0x0x0x-0x0x0x0x-|  x2
G|-6-5-0x0x0x0x-0x0x0x0x-|
C|-6-5-0x0x0x0x-0x0x0x0x-|

D|-------------------------------------------------------|
A|-------------------------------------------------------|
F|-------------------------------------------------------|
C|-6-5-0x0x0x0x-6-5-0x0x0x0x-6-5-0x0x0x0x-0x0x0x0x-3x-3x-|
G|-6-5-0x0x0x0x-6-5-0x0x0x0x-6-5-0x0x0x0x-0x0x0x0x-3x-3x-|
C|-6-5-0x0x0x0x-6-5-0x0x0x0x-6-5-0x0x0x0x-0x0x0x0x-3x-3x-|

D|--------------------------|
A|-----------------------4~-|
F|--------------------------|
C|-6-5-0x0x0x0x-0x0x0x0x----|  x2
G|-6-5-0x0x0x0x-0x0x0x0x----|
C|-6-5-0x0x0x0x-0x0x0x0x----|

D|----------------------------------------------------|
A|-------------------------------------------------4~-|
F|----------------------------------------------------|
C|-6-5-0x0x0x0x-6-5-0x0x0x0x-6-5-0x0x0x0x-0x0x0x0x----|
G|-6-5-0x0x0x0x-6-5-0x0x0x0x-6-5-0x0x0x0x-0x0x0x0x----|
C|-6-5-0x0x0x0x-6-5-0x0x0x0x-6-5-0x0x0x0x-0x0x0x0x----|


Pre-Chorus:
(Not sure about this part)
D|-----------------------------------------------|
A|-----------------------------------------------|
F|-----------------------------------------------|
C|-3333-3333-5555-5533---------------------------|
G|-3333-3333-5555-5533---------------------------|
C|-3333-3333-5555-5533-6-0-5-0-3-000-5-000-5-000-|

D|---------------------|
A|---------------------|
F|---------------------|
C|-3333-5555-6666-5533-|
G|-3333-5555-6666-5533-|
C|-3333-5555-6666-5533-|


Chorus:
D|--------------------------|
A|-----------------------4~-|
F|--------------------------|
C|-6-5-0x0x0x0x-0x0x0x0x----|  x2
G|-6-5-0x0x0x0x-0x0x0x0x----|
C|-6-5-0x0x0x0x-0x0x0x0x----|

D|-------------------------------------------------|
A|-------------------------------------------------|
F|-------------------------------------------------|
C|-6-5-0x0x0x0x-6-5-0x0x0x0x-6-5-0x0x0x0x-0x-0x-0x-|
G|-6-5-0x0x0x0x-6-5-0x0x0x0x-6-5-0x0x0x0x-0x-0x-0x-|
C|-6-5-0x0x0x0x-6-5-0x0x0x0x-6-5-0x0x0x0x-0x-0x-0x-|


Post-Chorus:
D|--------------------------|
A|-----------------------4~-|
F|--------------------------|
C|-6-5-0x0x0x0x-0x0x0x0x----|  x2
G|-6-5-0x0x0x0x-0x0x0x0x----|
C|-6-5-0x0x0x0x-0x0x0x0x----|

D|----------------------------------------------------|
A|-------------------------------------------------4~-|
F|----------------------------------------------------|
C|-6-5-0x0x0x0x-6-5-0x0x0x0x-6-5-0x0x0x0x-0x0x0x0x----|
G|-6-5-0x0x0x0x-6-5-0x0x0x0x-6-5-0x0x0x0x-0x0x0x0x----|
C|-6-5-0x0x0x0x-6-5-0x0x0x0x-6-5-0x0x0x0x-0x0x0x0x----|


Verse 2:
D|-----------------------|
A|-----------------------|
F|-----------------------|
C|-6-5-0x0x0x0x-0x0x0x0x-|  x2
G|-6-5-0x0x0x0x-0x0x0x0x-|
C|-6-5-0x0x0x0x-0x0x0x0x-|

D|-------------------------------------------------------|
A|-------------------------------------------------------|
F|-------------------------------------------------------|
C|-6-5-0x0x0x0x-6-5-0x0x0x0x-6-5-0x0x0x0x-0x0x0x0x-3x-3x-|
G|-6-5-0x0x0x0x-6-5-0x0x0x0x-6-5-0x0x0x0x-0x0x0x0x-3x-3x-|
C|-6-5-0x0x0x0x-6-5-0x0x0x0x-6-5-0x0x0x0x-0x0x0x0x-3x-3x-|

D|--------------------------|
A|-----------------------4~-|
F|--------------------------|
C|-6-5-0x0x0x0x-0x0x0x0x----|  x2
G|-6-5-0x0x0x0x-0x0x0x0x----|
C|-6-5-0x0x0x0x-0x0x0x0x----|

D|----------------------------------------------------|
A|-------------------------------------------------4~-|
F|----------------------------------------------------|
C|-6-5-0x0x0x0x-6-5-0x0x0x0x-6-5-0x0x0x0x-0x0x0x0x----|
G|-6-5-0x0x0x0x-6-5-0x0x0x0x-6-5-0x0x0x0x-0x0x0x0x----|
C|-6-5-0x0x0x0x-6-5-0x0x0x0x-6-5-0x0x0x0x-0x0x0x0x----|


Pre-Chorus:
(Not sure about this part)
D|-----------------------------------------------|
A|-----------------------------------------------|
F|-----------------------------------------------|
C|-3333-3333-5555-5533---------------------------|
G|-3333-3333-5555-5533---------------------------|
C|-3333-3333-5555-5533-6-0-5-0-3-000-5-000-5-000-|

D|---------------------|
A|---------------------|
F|---------------------|
C|-3333-5555-6666-5533-|
G|-3333-5555-6666-5533-|
C|-3333-5555-6666-5533-|


Chorus 2:
D|--------------------------|
A|-----------------------4~-|
F|--------------------------|
C|-6-5-0x0x0x0x-0x0x0x0x----|  x2
G|-6-5-0x0x0x0x-0x0x0x0x----|
C|-6-5-0x0x0x0x-0x0x0x0x----|

D|-------------------------------------------------------|
A|-------------------------------------------------------|
F|-------------------------------------------------------|
C|-6-5-0x0x0x0x-6-5-0x0x0x0x-6-5-0x0x0x0x-0x-0x-0x-0-3-5-|
G|-6-5-0x0x0x0x-6-5-0x0x0x0x-6-5-0x0x0x0x-0x-0x-0x-0-3-5-|
C|-6-5-0x0x0x0x-6-5-0x0x0x0x-6-5-0x0x0x0x-0x-0x-0x-0-3-5-|


Bridge:
D|-------------------|
A|-------------------|
F|-------------------|
C|-0x0x0x0x-0x0x-3-5-|   x4
G|-0x0x0x0x-0x0x-3-5-|
C|-0x0x0x0x-0x0x-3-5-|

Solo Part:
D|---------------11-11-11-11-11-11-14-17-16-14-11-9-9/11~-|
A|-8/9~-9-8-6-3~------------------------------------------|
F|--------------------------------------------------------|
C|--------------------------------------------------------|
G|--------------------------------------------------------|
C|--------------------------------------------------------|


Pre-Chorus:
D|-----------------------------------------------|
A|-----------------------------------------------|
F|-----------------------------------------------|
C|-3333-3333-5555-5533---------------------------|
G|-3333-3333-5555-5533---------------------------|
C|-3333-3333-5555-5533-6-0-5-0-3-000-5-000-5-000-|

D|---------------------|
A|---------------------|
F|---------------------|
C|-3333-5555-6666-5533-|
G|-3333-5555-6666-5533-|
C|-3333-5555-6666-5533-|


Final Chorus:
D|--------------------------|
A|-----------------------4~-|
F|--------------------------|
C|-6-5-0x0x0x0x-0x0x0x0x----|  x2
G|-6-5-0x0x0x0x-0x0x0x0x----|
C|-6-5-0x0x0x0x-0x0x0x0x----|

D|-------------------------------------------------|
A|-------------------------------------------------|
F|-------------------------------------------------|
C|-6-5-0x0x0x0x-6-5-0x0x0x0x-6-5-0x0x0x0x-0x-0x-0x-|
G|-6-5-0x0x0x0x-6-5-0x0x0x0x-6-5-0x0x0x0x-0x-0x-0x-|
C|-6-5-0x0x0x0x-6-5-0x0x0x0x-6-5-0x0x0x0x-0x-0x-0x-|


Post-Chorus:
D|--------------------------|
A|-----------------------4~-|
F|--------------------------|
C|-6-5-0x0x0x0x-0x0x0x0x----|  x2
G|-6-5-0x0x0x0x-0x0x0x0x----|
C|-6-5-0x0x0x0x-0x0x0x0x----|

D|----------------------------------------------------|
A|-------------------------------------------------4~-|
F|----------------------------------------------------|
C|-6-5-0x0x0x0x-6-5-0x0x0x0x-6-5-0x0x0x0x-0x0x0x0x----|
G|-6-5-0x0x0x0x-6-5-0x0x0x0x-6-5-0x0x0x0x-0x0x0x0x----|
C|-6-5-0x0x0x0x-6-5-0x0x0x0x-6-5-0x0x0x0x-0x0x0x0x----|

(Listen to the music for the rhythm)
D|---------------------------------------------------|
A|-----------------------4~-----------------------4~-|
F|---------------------------------------------------|
C|-6-5-0x0x0x0x-0x0x0x0x----6-5-0x0x0x0x-0x0x0x0x----|
G|-6-5-0x0x0x0x-0x0x0x0x----6-5-0x0x0x0x-0x0x0x0x----|
C|-6-5-0x0x0x0x-0x0x0x0x----6-5-0x0x0x0x-0x0x0x0x----|

D|-------------------------------------------------|
A|-------------------------------------------------|
F|-------------------------------------------------|
C|-6-5-0x0x0x0x-6-5-0x0x0x0x-6-5-0x0x0x0x-0x-0x-0x-|
G|-6-5-0x0x0x0x-6-5-0x0x0x0x-6-5-0x0x0x0x-0x-0x-0x-|
C|-6-5-0x0x0x0x-6-5-0x0x0x0x-6-5-0x0x0x0x-0x-0x-0x-|

************************************

| /   slide up
| \   slide down
| ~   vibrato
| x   Mute note

************************************

If you have any comments/corrections, please say in either the comments box or on my 
profile page.
Good luck and enjoy!
Tap to rate this tab
# A B C D E F G H I J K L M N O P Q R S T U V W X Y Z