Song name
# A B C D E F G H I J K L M N O P Q R S T U V W X Y Z

Wednesday 13 - Haunt Me tab

----------------------------------------------------------------------------
                         Wednesday 13 - Haunt Me
----------------------------------------------------------------------------

Tabbed by: Metalrock4ever

Tuning: CGCFAD

Intro:
(Wait a couple of bars)
D|------|
A|------|
F|-8-77-|
C|-8-77-|
G|-6-55-|
C|------|

D|-----------------------------------------|
A|-----------------------------------------|
F|---------------------------------88-77---|
C|-5-5-5-0-5-0-88-77-0-5-5-5-0-5-0-88-77-0-|
G|-5-5-5-0-5-0-88-77-0-5-5-5-0-5-0-66-55-0-|
C|-5-5-5-0-5-0-88-77-0-5-5-5-0-5-0-------0-|

D|---------------------------------------|
A|---------------------------------------|
F|---------------------------------88-77-|
C|-5-5-5-0-5-0-88-77-0-5-5-5-0-5-0-88-77-|
G|-5-5-5-0-5-0-88-77-0-5-5-5-0-5-0-66-55-|
C|-5-5-5-0-5-0-88-77-0-5-5-5-0-5-0-------|

Solo Part:
(Rhythm is a bit different at the end, but he plays the same notes)
D|---------------------------------|
A|-8---8---8---8---8---8---8---8---|
F|---7---7---7---7---7---7---7---7-|
C|---------------------------------|   x2
G|---------------------------------|
C|---------------------------------|


Verse:
D|-----------------------------------------|
A|-----------------------------------------|
F|---------------------------------88-77---|
C|-5-5-5-0-5-0-88-77-0-5-5-5-0-5-0-88-77-0-|  x2
G|-5-5-5-0-5-0-88-77-0-5-5-5-0-5-0-66-55-0-|
C|-5-5-5-0-5-0-88-77-0-5-5-5-0-5-0-------0-|


Pre-Chorus:
D|-------|
A|-------|
F|-------|
C|-3~-5~-|  x3
G|-3~-5~-|
C|-3~-5~-|

D|-------|
A|-------|
F|-88-77-|
C|-88-77-|
G|-66-55-|
C|-------|

Solo Part:
D|-------|
A|-6~-8~-|
F|-------|
C|-------|  x3
G|-------|
C|-------|

D|-1111-1010-| <- These are 11's and 10's
A|-----------|
F|-----------|
C|-----------|
G|-----------|
C|-----------|


Chorus:
D|-----------------------------------------|
A|-----------------------------------------|
F|---------------------------------88-77---|
C|-5-5-5-0-5-0-88-77-0-5-5-5-0-5-0-88-77-0-|
G|-5-5-5-0-5-0-88-77-0-5-5-5-0-5-0-66-55-0-|
C|-5-5-5-0-5-0-88-77-0-5-5-5-0-5-0-------0-|

D|---------------------------------------|
A|---------------------------------------|
F|---------------------------------88-77-|
C|-5-5-5-0-5-0-88-77-0-5-5-5-0-5-0-88-77-|
G|-5-5-5-0-5-0-88-77-0-5-5-5-0-5-0-66-55-|
C|-5-5-5-0-5-0-88-77-0-5-5-5-0-5-0-------|

Solo Part:
(Rhythm is a bit different at the end, but he plays the same notes)
D|---------------------------------|
A|-8---8---8---8---8---8---8---8---|
F|---7---7---7---7---7---7---7---7-|
C|---------------------------------|   x2
G|---------------------------------|
C|---------------------------------|


Verse 2:
D|-----------------------------------------|
A|-----------------------------------------|
F|---------------------------------88-77---|
C|-5-5-5-0-5-0-88-77-0-5-5-5-0-5-0-88-77-0-|  x2
G|-5-5-5-0-5-0-88-77-0-5-5-5-0-5-0-66-55-0-|
C|-5-5-5-0-5-0-88-77-0-5-5-5-0-5-0-------0-|


Pre-Chorus:
D|-------|
A|-------|
F|-------|
C|-3~-5~-|  x3
G|-3~-5~-|
C|-3~-5~-|

D|-------|
A|-------|
F|-88-77-|
C|-88-77-|
G|-66-55-|
C|-------|

Solo Part:
D|-------|
A|-6~-8~-|
F|-------|
C|-------|  x3
G|-------|
C|-------|

D|-1111-1010-| <- These are 11's and 10's
A|-----------|
F|-----------|
C|-----------|
G|-----------|
C|-----------|


Chorus 2:
D|-----------------------------------------|
A|-----------------------------------------|
F|---------------------------------88-77---|
C|-5-5-5-0-5-0-88-77-0-5-5-5-0-5-0-88-77-0-|
G|-5-5-5-0-5-0-88-77-0-5-5-5-0-5-0-66-55-0-|
C|-5-5-5-0-5-0-88-77-0-5-5-5-0-5-0-------0-|

D|---------------------------------------|
A|---------------------------------------|
F|---------------------------------88-77-|
C|-5-5-5-0-5-0-88-77-0-5-5-5-0-5-0-88-77-|  Repeat both parts again
G|-5-5-5-0-5-0-88-77-0-5-5-5-0-5-0-66-55-|
C|-5-5-5-0-5-0-88-77-0-5-5-5-0-5-0-------|

Solo Part:
(Rhythm is a bit different at the end, but he plays the same notes)
D|---------------------------------|
A|-8---8---8---8---8---8---8---8---|
F|---7---7---7---7---7---7---7---7-|
C|---------------------------------|   x4
G|---------------------------------|
C|---------------------------------|


Bridge:
D|-----------------------------------------|
A|-----------------------------------------|
F|---------------------------------88-77---|
C|-5-5-5-0-5-0-88-77-0-5-5-5-0-5-0-88-77-0-|
G|-5-5-5-0-5-0-88-77-0-5-5-5-0-5-0-66-55-0-|
C|-5-5-5-0-5-0-88-77-0-5-5-5-0-5-0-------0-|

D|---------------------------------------|
A|---------------------------------------|
F|---------------------------------88-77-|
C|-5-5-5-0-5-0-88-77-0-5-5-5-0-5-0-88-77-|
G|-5-5-5-0-5-0-88-77-0-5-5-5-0-5-0-66-55-|
C|-5-5-5-0-5-0-88-77-0-5-5-5-0-5-0-------|

Solo Part:
D|---------------------------------------------------------|
A|-8-------------------------------------------------------|
F|---7-5/7-8-7-5-3-5-3-0~-3~-2~-7-5/7-8-7-5-3-5-3-0~-33-22-|
C|---------------------------------------------------------|
G|---------------------------------------------------------|
C|---------------------------------------------------------|


Verse 3:
D|-----------------------------------------|
A|-----------------------------------------|
F|---------------------------------88-77---|
C|-5-5-5-0-5-0-88-77-0-5-5-5-0-5-0-88-77-0-|  x2
G|-5-5-5-0-5-0-88-77-0-5-5-5-0-5-0-66-55-0-|
C|-5-5-5-0-5-0-88-77-0-5-5-5-0-5-0-------0-|



Pre-Chorus:
D|-------|
A|-------|
F|-------|
C|-3~-5~-|  x3
G|-3~-5~-|
C|-3~-5~-|

D|-------|
A|-------|
F|-88-77-|
C|-88-77-|
G|-66-55-|
C|-------|

Solo Part:
D|-------|
A|-6~-8~-|
F|-------|
C|-------|  x3
G|-------|
C|-------|

D|-1111-1010-| <- These are 11's and 10's
A|-----------|
F|-----------|
C|-----------|
G|-----------|
C|-----------|


Final Chorus:
D|-----------------------------------------|
A|-----------------------------------------|
F|---------------------------------88-77---|
C|-5-5-5-0-5-0-88-77-0-5-5-5-0-5-0-88-77-0-|
G|-5-5-5-0-5-0-88-77-0-5-5-5-0-5-0-66-55-0-|
C|-5-5-5-0-5-0-88-77-0-5-5-5-0-5-0-------0-|

D|---------------------------------------|
A|---------------------------------------|
F|---------------------------------88-77-|
C|-5-5-5-0-5-0-88-77-0-5-5-5-0-5-0-88-77-|  Repeat both parts again
G|-5-5-5-0-5-0-88-77-0-5-5-5-0-5-0-66-55-|
C|-5-5-5-0-5-0-88-77-0-5-5-5-0-5-0-------|

Solo Part:
(Rhythm is a bit different at the end, but he plays the same notes)
D|---------------------------------|
A|-8---8---8---8---8---8---8---8---|
F|---7---7---7---7---7---7---7---7-|
C|---------------------------------|   x4
G|---------------------------------|
C|---------------------------------|

************************************

| /   slide up
| \   slide down
| h   hammer-on
| ~   vibrato
| x   Mute note

************************************

If you have any comments/corrections, please say in either the comments box or leave me
a message. Good luck and enjoy!
Tap to rate this tab
# A B C D E F G H I J K L M N O P Q R S T U V W X Y Z