Song name
# A B C D E F G H I J K L M N O P Q R S T U V W X Y Z

Wednesday 13 - My Demise tab

-----------------------------------------------------------------------------
                           Wednesday 13 - My Demise
-----------------------------------------------------------------------------

Tabbed by: Metalrock4ever

Tuning: CGCFAD

Intro:
D|---0-0---0-----------------------------|
A|---1-1---1-------5-5---5---------------|
F|-2-----2---22----5-5---5---------------|
C|-2-----2---22--5-----5---55-333/5-2222-|
G|-0-----0---00--3-----3---33-333/5-2222-|
C|----------------------------333/5-2222-|


Verse:
D|---0-0---0-----------------------------|
A|---1-1---1-------5-5---5---------------|
F|-2-----2---22----5-5---5---------------|
C|-2-----2---22--5-----5---55-333/5-2222-|
G|-0-----0---00--3-----3---33-333/5-2222-|
C|----------------------------333/5-2222-|

D|---0-0---0------------------|
A|---1-1---1-------5-5---5----|
F|-2-----2---22----5-5---5----|
C|-2-----2---22--5-----5---55-|
G|-0-----0---00--3-----3---33-|
C|----------------------------|

Then...
D|--------------------------------|
A|--------------------------------|
F|--------------------------------|
C|-3-3-33-33-33/55-2-2-22-22-2202-| x2
G|-3-3-33-33-33/55-2-2-22-22-2202-|
C|-3-3-33-33-33/55-2-2-22-22-2202-|

D|--------------------|
A|--------------------|
F|--------------------|
C|-3-3-33-33-33/55-2~-|
G|-3-3-33-33-33/55-2~-|
C|-3-3-33-33-33/55-2~-|


Chorus:
D|-------------------------------------------------------|
A|-------------------------------------------------------|
F|-5555------5555------5555------------5555--------------|
C|-5555-3333-5555-3333-5555-3333-55-33-5555--------------|
G|-3333-3333-3333-3333-3333-3333-55-33-3333-55-33-222-2~-|
C|------3333------3333------3333-55-33------55-33-222-2~-|

Solo Part:
|-----------------------------------------------------|
|-----------------------------------------------------|
|-5~----5~----5~----------5~--------------------------|
|----3~----3~----3~-5~-3~----5~-3~-2-2-2-2-2-2-2-2-2~-|
|-----------------------------------------------------|
|-----------------------------------------------------|


Verse 2:
D|---0-0---0-----------------------------|
A|---1-1---1-------5-5---5---------------|
F|-2-----2---22----5-5---5---------------|
C|-2-----2---22--5-----5---55-333/5-2222-|
G|-0-----0---00--3-----3---33-333/5-2222-|
C|----------------------------333/5-2222-|

D|---0-0---0------------------|
A|---1-1---1-------5-5---5----|
F|-2-----2---22----5-5---5----|
C|-2-----2---22--5-----5---55-|
G|-0-----0---00--3-----3---33-|
C|----------------------------|

Then...
D|--------------------------------|
A|--------------------------------|
F|--------------------------------|
C|-3-3-33-33-33/55-2-2-22-22-2202-| x2
G|-3-3-33-33-33/55-2-2-22-22-2202-|
C|-3-3-33-33-33/55-2-2-22-22-2202-|

Solo Part:
D|-----------------------------------------------------------------|
A|----1~-1/3--------------1~-1/3-----------------------------------|
F|-2~------------------2~------------------------------------------|
C|-----------3~-3/5-2~-----------3~-3/5-2~-3~-3/5-2~-0h2-3~-3/5-2~-|
G|-----------------------------------------------------------------|
C|-----------------------------------------------------------------|

Chorus 2:
D|-------------------------------------------------------|
A|-------------------------------------------------------|
F|-5555------5555------5555------------5555--------------|
C|-5555-3333-5555-3333-5555-3333-55-33-5555--------------|
G|-3333-3333-3333-3333-3333-3333-55-33-3333-55-33-222-2~-|
C|------3333------3333------3333-55-33------55-33-222-2~-|

Solo Part:
D|-----------------------------------------------------|
A|-----------------------------------------------------|
F|-5~----5~----5~----------5~--------------------------|
C|----3~----3~----3~-5~-3~----5~-3~-2-2-2-2-2-2-2-2-2~-|
G|-----------------------------------------------------|
C|-----------------------------------------------------|


Bridge:
D|-----------------------------------------|
A|-----------------------------------------|
F|-6666------6666------6666----------------|
C|-6666-4444-6666-4444-6666-44-6-4-3333-2~-|
G|-4444-4444-4444-4444-4444-44-6-4-3333-2~-|
C|------4444------4444------44-6-4-3333-2~-|


Solo Part:
D|-----------------------------------------|
A|-----------------------------------------|
F|-6-6b------6-66-4h6-66-4h6-66-4h6h7h6----|
C|------4~-3----------------------------4~-|
G|-----------------------------------------|
C|-----------------------------------------|

D|--------------------------------------------------|
A|-/9~-9b-7~-9-7-6h7-6h7-6h7-6h7-6h7-6h7-6h7-6h7-5~-|
F|--------------------------------------------------|
C|--------------------------------------------------|
G|--------------------------------------------------|
C|--------------------------------------------------|


Chorus 3:
(Acoustic)
D|---------------------|
A|---------------------|
F|-5555------5555------|
C|-5555-3333-5555-3333-|
G|-3333-3333-3333-3333-|
C|------3333------3333-|

D|------------------------------------------|
A|------------------------------------------|
F|-5555------5555------5555------------5555-|
C|-5555-3333-5555-3333-5555-3333-55-33-5555-|
G|-3333-3333-3333-3333-3333-3333-55-33-3333-|
C|------3333------3333------3333-55-33------|

D|------------|
A|------------|
F|------------|
C|-55-33-2222-| x3
G|-55-33-2222-|
C|-55-33-2222-|

D|------------------|
A|------------------|
F|------------------|
C|-55-33-2-2-2-2-2~-|
G|-55-33-2-2-2-2-2~-|
C|-55-33-2-2-2-2-2~-|

Solo Part:
|------------------------------------------------------------------12~-|
|----------------------------8~-6~-5~-8~-6~-5~-8~-6~-5~-8~-6~-5555-----|
|-5~----5~----5~----------5~-------------------------------------------|
|----3~----3~----3~-5~-3~----------------------------------------------|
|----------------------------------------------------------------------|
|----------------------------------------------------------------------|

Outro:
D|-----------------------------------------|
A|-----------------------------------------|
F|-5555------5555------5555------5555------|
C|-5555-3333-5555-3333-5555-3333-5555-3333-|
G|-3333-3333-3333-3333-3333-3333-3333-3333-|
C|------3333------3333------3333------3333-|

************************************

| /   slide up
| \   slide down
| h   hammer-on
| ~   vibrato
| x   Mute note
| b   Bend

************************************

If you have any comments/corrections, please say in either the comments box or leave me 
a message.
Good luck and enjoy!
Tap to rate this tab
# A B C D E F G H I J K L M N O P Q R S T U V W X Y Z