Song name
# A B C D E F G H I J K L M N O P Q R S T U V W X Y Z

Wednesday 13 - Mftw tab

[ Intro ]

D----------------------------------------------------------------|
A----------------------------------------------------------------|
F----------------------------------------------------------------|
C--0-2-2-0-2--2-0--5-5-5-2-5-2--0-2-2-0-2--2-0--7-5-2-0-2--------|
G--0-2-2-0-2--2-0--5-5-5-2-5-2--0-2-2-0-2--2-0--7-5-2-0-2--------|
C--0-2-2-0-2--2-0--5-5-5-2-5-2--0-2-2-0-2--2-0--7-5-2-0-2--------|

[ Verse ]

D-----------------------------------------------------------------|
A-----------------------------------------------------------------|
F-----------------------------------------------------------------|
C--2----5/----5-7-5-7~-5-5----2----5/----9-9----9-9---------------|
G--2----5/----5-7-5-7~-5-5----2----5/----7-7----7-7---------------|
C--2----5/----5-7-5-7~-5-5----2----5/-----------------------------| (x2)

[ Pre-Chorus ]

D-------------------------------------------------------------|
A-------------------------------------------------------------|
F-------------------------------------------------------------|
C--7----5----2-2---2-2---2-2---2-2---2--2---7----5----4----3--|
G--7----5----2-2---2-2---2-2---2-2---2--2---7----5----4----3--|
C--7----5----2-2---2-2---2-2---2-2---2--2---7----5----4----3--|

[ Chorus ]


D----------------------------------------------------------------|
A----------------------------------------------------------------|
F----------------------------------------------------------------|
C--0-2-2-0-2--2-0--5-5-5-2-5-2--0-2-2-0-2--2-0--7-5-2-0-2--------|
G--0-2-2-0-2--2-0--5-5-5-2-5-2--0-2-2-0-2--2-0--7-5-2-0-2--------|
C--0-2-2-0-2--2-0--5-5-5-2-5-2--0-2-2-0-2--2-0--7-5-2-0-2--------| (x2)


D------------------------------------------------------------|
A------------------------------------------------------------|
F------------------------------------------------------------|
C--0-2--0-2--0-2--0-2--x-x-x-x--0-2--0-2--0-2--0-2--5--5-----|
G--0-2--0-2--0-2--0-2--x-x-x-x--0-2--0-2--0-2--0-2--5--5-----|
C--0-2--0-2--0-2--0-2--x-x-x-x--0-2--0-2--0-2--0-2--5--5-----|

D------------------------------------------------------------|
A------------------------------------------------------------|
F------------------------------------------------------------|
C--0-2--0-2--0-2--0-2--x-x-x-x--0-2--0-2--0-2--0-2--5--5-----|
G--0-2--0-2--0-2--0-2--x-x-x-x--0-2--0-2--0-2--0-2--5--5-----|
C--0-2--0-2--0-2--0-2--x-x-x-x--0-2--0-2--0-2--0-2--5--5-----|

[ Riff 2-  2:11 - 2:25 ]

D------------------------------------------------------------|
A------------------------------------------------------------|
F------------------------------------------------------------|
C--0-2--0-2--0-2--0-2--x-x-x-x--0-2--0-2--0-2--0-2--5--5-----|
G--0-2--0-2--0-2--0-2--x-x-x-x--0-2--0-2--0-2--0-2--5--5-----|
C--0-2--0-2--0-2--0-2--x-x-x-x--0-2--0-2--0-2--0-2--5--5-----|

D------------------------------------------------------------|
A------------------------------------------------------------|
F------------------------------------------------------------|
C--0-2--0-2--0-2--0-2--x-x-x-x--0-2--0-2--0-2--0-2--5--5-----|
G--0-2--0-2--0-2--0-2--x-x-x-x--0-2--0-2--0-2--0-2--5--5-----|
C--0-2--0-2--0-2--0-2--x-x-x-x--0-2--0-2--0-2--0-2--5--5-----|

[ Pre-Chorus ]

[ Riff 3 ]

D----------------------------------------------------------------|
A----------------------------------------------------------------|
F----------------------------------------------------------------|
C--0-2-2-0-2--2-0--5-5-5-2-5-2--0-2-2-0-2--2-0--7-5-2-0-2--------|
G--0-2-2-0-2--2-0--5-5-5-2-5-2--0-2-2-0-2--2-0--7-5-2-0-2--------|
C--0-2-2-0-2--2-0--5-5-5-2-5-2--0-2-2-0-2--2-0--7-5-2-0-2--------| (x2)

[ Chorus ]

[ Outro ]

D------------------------------------------------------------|
A------------------------------------------------------------|
F------------------------------------------------------------|
C--0-2--0-2--0-2--0-2--x-x-x-x--0-2--0-2--0-2--0-2--5--5-----|
G--0-2--0-2--0-2--0-2--x-x-x-x--0-2--0-2--0-2--0-2--5--5-----|
C--0-2--0-2--0-2--0-2--x-x-x-x--0-2--0-2--0-2--0-2--5--5-----|

D------------------------------------------------------------|
A------------------------------------------------------------|
F------------------------------------------------------------|
C--0-2--0-2--0-2--0-2--x-x-x-x--0-2--0-2--0-2--0-2--5--5-----|
G--0-2--0-2--0-2--0-2--x-x-x-x--0-2--0-2--0-2--0-2--5--5-----|
C--0-2--0-2--0-2--0-2--x-x-x-x--0-2--0-2--0-2--0-2--5--5-----|
Tap to rate this tab
 
# A B C D E F G H I J K L M N O P Q R S T U V W X Y Z