Song name
# A B C D E F G H I J K L M N O P Q R S T U V W X Y Z

Wednesday 13 - Carol Anne Theyre Here tab

-This Tab is Made by LivingDead31-

[Riff 1]

D-----------------------------------------------------------------------------|
A-----------------------------------------------------------------------------|
F-----------------------------------------------------------------------------|
C---6-6--6-6-6--6-6-6--6-6-6--6-6-6--6-6-6--6-6-6--6-6-6--6-6-6--6-6-6--6-6-6-|
G---6-6--6-6-6--6-6-6--6-6-6--6-6-6--6-6-6--6-6-6--6-6-6--6-6-6--6-6-6--6-6-6-|
C---6-6--6-6-6--6-6-6--6-6-6--6-6-6--6-6-6--6-6-6--6-6-6--6-6-6--6-6-6--6-6-6-|

D----------------------------------------------------------------|
A----------------------------------------------------------------|
F----------------------------------------------------------------|
C---6-6-6--5-5--3-3--3-3-3--3-3-3--3-3-3--1-1--6-6--6-6-6--6-6-6-|
G---6-6-6--5-5--3-3--3-3-3--3-3-3--3-3-3--1-1--4-4--4-4-4--4-4-4-|
C---6-6-6--5-5--3-3--3-3-3--3-3-3--3-3-3--1-1--------------------|

D-------------------------------|
A-------------------------------|
F-------------------------------|
C---6-6-6--5-5--8-8--8-8-8--8-8-|
G---4-4-4--3-3--6-6--6-6-6--6-6-|
C-------------------------------|


[Pre-Chorus]

D----------------------------------------------------------------------------|
A----------------------------------------------------------------------------|
F----------------------------------------------------------------------------|
C---6-6--6-6-6--6-6-6--6-6-6--5-5--3-3--3-3-3--3-3-3--3-3-3--1-1--6-6--6-6-6-|
G---6-6--6-6-6--6-6-6--6-6-6--5-5--3-3--3-3-3--3-3-3--3-3-3--1-1--4-4--4-4-4-|
C---6-6--6-6-6--6-6-6--6-6-6--5-5--3-3--3-3-3--3-3-3--3-3-3--1-1-------------|

D--------------------------------------|
A--------------------------------------|
F--------------------------------------|
C---6-6-6--6-6-6--5-5--8-8--8-8-8--8-8-|
G---4-4-4--4-4-4--3-3--6-6--6-6-6--6-6-|
C--------------------------------------|


[Chorus]

D----------------------------------------------------------------------------|
A----------------------------------------------------------------------------|
F----------------------------------------------------------------------------|
C---6-6--6-6-6--6-6-6--6-6-6--5-5--3-3--3-3-3--3-3-3--3-3-3--5-5--6-6--6-6-6-|
G---6-6--6-6-6--6-6-6--6-6-6--5-5--3-3--3-3-3--3-3-3--3-3-3--5-5--6-6--6-6-6-|
C---6-6--6-6-6--6-6-6--6-6-6--5-5--3-3--3-3-3--3-3-3--3-3-3--5-5--6-6--6-6-6-|

D----------------------------------------------------------------|
A----------------------------------------------------------------|
F----------------------------------------------------------------|
C---6-6-6--6-6-6--5-5--3-3--3-3-3--3-3-3--3-3-3--1-1--6-6--6-6-6-|
G---6-6-6--6-6-6--5-5--3-3--3-3-3--3-3-3--3-3-3--1-1--4-4--4-4-4-|
C---6-6-6--6-6-6--5-5--3-3--3-3-3--3-3-3--3-3-3--1-1-------------|

D---------------------------------------------------------------------------|
A---------------------------------------------------------------------------|
F---------------------------------------------------------------------------|
C---6-6-6--6-6-6--5-5--8-8--8-8-8--8-8-8--8-8-8--/---6---6-6--6--1---1-1--1-|
G---4-4-4--4-4-4--3-3--6-6--6-6-6--6-6-6--6-6-6--/---6---6-6--6--1---1-1--1-|
C------------------------------------------------/---6---6-6--6--1---1-1--1-|

D-------------------------|
A-------------------------|
F-------------------------|
C---6---6-6--3--6-6-6-3-6-|
G---6---6-6--3--6-6-6-3-6-|
C---6---6-6--3--6-6-6-3-6-|


[Main riff]

D----------------------------------------------------------------------------|
A----------------------------------------------------------------------------|
F----------------------------------------------------------------------------|
C---6-6--6-6-6--6-6-6--6-6-6--5-5--3-3--3-3-3--3-3-3--3-3-3--1-1--6-6--6-6-6-|
G---6-6--6-6-6--6-6-6--6-6-6--5-5--3-3--3-3-3--3-3-3--3-3-3--1-1--4-4--4-4-4-|
C---6-6--6-6-6--6-6-6--6-6-6--5-5--3-3--3-3-3--3-3-3--3-3-3--1-1-------------|

D------------------------------------------------|
A------------------------------------------------|
F------------------------------------------------|
C---6-6-6--6-6-6--5-5--8-8--8-8-8--8-8-8--8-8-8--|
G---4-4-4--4-4-4--3-3--6-6--6-6-6--6-6-6--6-6-6--|
C------------------------------------------------| (repeat 2x)


[Chorus]

D----------------------------------------------------------------------------|
A----------------------------------------------------------------------------|
F----------------------------------------------------------------------------|
C---6-6--6-6-6--6-6-6--6-6-6--5-5--3-3--3-3-3--3-3-3--3-3-3--5-5--6-6--6-6-6-|
G---6-6--6-6-6--6-6-6--6-6-6--5-5--3-3--3-3-3--3-3-3--3-3-3--5-5--6-6--6-6-6-|
C---6-6--6-6-6--6-6-6--6-6-6--5-5--3-3--3-3-3--3-3-3--3-3-3--5-5--6-6--6-6-6-|

D----------------------------------------------------------------|
A----------------------------------------------------------------|
F----------------------------------------------------------------|
C---6-6-6--6-6-6--5-5--3-3--3-3-3--3-3-3--3-3-3--1-1--6-6--6-6-6-|
G---6-6-6--6-6-6--5-5--3-3--3-3-3--3-3-3--3-3-3--1-1--4-4--4-4-4-|
C---6-6-6--6-6-6--5-5--3-3--3-3-3--3-3-3--3-3-3--1-1-------------|

D---------------------------------------------------------------------------|
A---------------------------------------------------------------------------|
F---------------------------------------------------------------------------|
C---6-6-6--6-6-6--5-5--8-8--8-8-8--8-8-8--8-8-8--/---6---6-6--6--1---1-1--1-|
G---4-4-4--4-4-4--3-3--6-6--6-6-6--6-6-6--6-6-6--/---6---6-6--6--1---1-1--1-|
C------------------------------------------------/---6---6-6--6--1---1-1--1-|

D-------------------------|
A-------------------------|
F-------------------------|
C---6---6-6--3--6-6-6-3-6-|
G---6---6-6--3--6-6-6-3-6-|
C---6---6-6--3--6-6-6-3-6-|


[Under solo part]
[Main riff]

D----------------------------------------------------------------------------|
A----------------------------------------------------------------------------|
F----------------------------------------------------------------------------|
C---6-6--6-6-6--6-6-6--6-6-6--5-5--3-3--3-3-3--3-3-3--3-3-3--1-1--6-6--6-6-6-|
G---6-6--6-6-6--6-6-6--6-6-6--5-5--3-3--3-3-3--3-3-3--3-3-3--1-1--4-4--4-4-4-|
C---6-6--6-6-6--6-6-6--6-6-6--5-5--3-3--3-3-3--3-3-3--3-3-3--1-1-------------|

D------------------------------------------------|
A------------------------------------------------|
F------------------------------------------------|
C---6-6-6--6-6-6--5-5--8-8--8-8-8--8-8-8--8-8-8--|
G---4-4-4--4-4-4--3-3--6-6--6-6-6--6-6-6--6-6-6--|
C------------------------------------------------| (repeat 2x)



[Chorus]

D----------------------------------------------------------------------------|
A----------------------------------------------------------------------------|
F----------------------------------------------------------------------------|
C---6-6--6-6-6--6-6-6--6-6-6--5-5--3-3--3-3-3--3-3-3--3-3-3--5-5--6-6--6-6-6-|
G---6-6--6-6-6--6-6-6--6-6-6--5-5--3-3--3-3-3--3-3-3--3-3-3--5-5--6-6--6-6-6-|
C---6-6--6-6-6--6-6-6--6-6-6--5-5--3-3--3-3-3--3-3-3--3-3-3--5-5--6-6--6-6-6-|

D----------------------------------------------------------------|
A----------------------------------------------------------------|
F----------------------------------------------------------------|
C---6-6-6--6-6-6--5-5--3-3--3-3-3--3-3-3--3-3-3--1-1--6-6--6-6-6-|
G---6-6-6--6-6-6--5-5--3-3--3-3-3--3-3-3--3-3-3--1-1--4-4--4-4-4-|
C---6-6-6--6-6-6--5-5--3-3--3-3-3--3-3-3--3-3-3--1-1-------------|

D---------------------------------------------------------------------------|
A---------------------------------------------------------------------------|
F---------------------------------------------------------------------------|
C---6-6-6--6-6-6--5-5--8-8--8-8-8--8-8-8--8-8-8--/---6---6-6--6--1---1-1--1-|
G---4-4-4--4-4-4--3-3--6-6--6-6-6--6-6-6--6-6-6--/---6---6-6--6--1---1-1--1-|
C------------------------------------------------/---6---6-6--6--1---1-1--1-|

D-------------------------|
A-------------------------|
F-------------------------|
C---6---6-6--3--6-6-6-3-6-|
G---6---6-6--3--6-6-6-3-6-|
C---6---6-6--3--6-6-6-3-6-|


[Outro]

D-----------------------------------------------------------------------|
A-----------------------------------------------------------------------|
F-----------------------------------------------------------------------|
C---6-6--6-6-6--6-6-6--6-6-6--6-6-6--6-6-6--6-6-6--6-6-6--6-6-6--6-6-6--|
G---6-6--6-6-6--6-6-6--6-6-6--6-6-6--6-6-6--6-6-6--6-6-6--6-6-6--6-6-6--|
C---6-6--6-6-6--6-6-6--6-6-6--6-6-6--6-6-6--6-6-6--6-6-6--6-6-6--6-6-6--|

D------------------------------------------------------------------|
A------------------------------------------------------------------|
F------------------------------------------------------------------|
C---6-6-6--6-6-6--6-6-6--6-6-6--6-6-6--6-6-6--6-6-6--6-6-6--6-6-6--|
G---6-6-6--6-6-6--6-6-6--6-6-6--6-6-6--6-6-6--6-6-6--6-6-6--6-6-6--|
C---6-6-6--6-6-6--6-6-6--6-6-6--6-6-6--6-6-6--6-6-6--6-6-6--6-6-6--| (repeat as much as you hear)
Tap to rate this tab
# A B C D E F G H I J K L M N O P Q R S T U V W X Y Z