Song name
# A B C D E F G H I J K L M N O P Q R S T U V W X Y Z

Wednesday 13 - Ghost Stories tab

-This Tab is Made by LivingDead31-

[Riff 1]  -00:15-

D----------------------------------------------------------------------------|
A----------------------------------------------------------------------------|
F----------------------------------------------------------------------------|
C--7-7-7---4-4-4-4-4-4-4-4--7-7-7-7-7-7-7-7--0-0-0-0-0-0-0-0-0-0-0-0-0-0-0-0-|
G--7-7-7---4-4-4-4-4-4-4-4--7-7-7-7-7-7-7-7--0-0-0-0-0-0-0-0-0-0-0-0-0-0-0-0-|
C--7-7-7---4-4-4-4-4-4-4-4--7-7-7-7-7-7-7-7--0-0-0-0-0-0-0-0-0-0-0-0-0-0-0-0-|

[Main riff]

D---------------------------------------------------------------------------|
A---------------------------------------------------------------------------|
F---------------------------------------------------------------------------|
C---4-x-x-4-x-x-4-x--7-x-x-7-x-x-7-x--0-x-x-0-x-x-0-x-0-x-x-0-x-x-0-x-------|
G---4-x-x-4-x-x-4-x--7-x-x-7-x-x-7-x--0-x-x-0-x-x-0-x-0-x-x-0-x-x-0-x-------|
C---4-x-x-4-x-x-4-x--7-x-x-7-x-x-7-x--0-x-x-0-x-x-0-x-0-x-x-0-x-x-0-x-------| (repeat 3x)

[Pre-Chorus]

D------------------------------------------------------------------|
A------------------------------------------------------------------|
F------------------------------------------------------------------|
C---4-x-x-4-x-x-4-x--7-x-x-7-x-x-7-x--0-x-x-0-x-x-0-x-0-x-x-x-x-0--|
G---4-x-x-4-x-x-4-x--7-x-x-7-x-x-7-x--0-x-x-0-x-x-0-x-0-x-x-x-x-0--|
C---4-x-x-4-x-x-4-x--7-x-x-7-x-x-7-x--0-x-x-0-x-x-0-x-0-x-x-x-x-0--|

[Chorus]

D---------------------------------------------------------------------|
A---------------------------------------------------------------------|
F---------------------------------------------------------------------|
C---4-4-4-4-4-4-4-4--7-7-7-7-7-7-7-7--0-0-0-0-0-0-0-0-0-0-0-0-0-0-0-0-|
G---4-4-4-4-4-4-4-4--7-7-7-7-7-7-7-7--0-0-0-0-0-0-0-0-0-0-0-0-0-0-0-0-|
C---4-4-4-4-4-4-4-4--7-7-7-7-7-7-7-7--0-0-0-0-0-0-0-0-0-0-0-0-0-0-0-0-| (repeat 5x)

[Main riff]

D---------------------------------------------------------------------------|
A---------------------------------------------------------------------------|
F---------------------------------------------------------------------------|
C---4-x-x-4-x-x-4-x--7-x-x-7-x-x-7-x--0-x-x-0-x-x-0-x-0-x-x-0-x-x-0-x-------|
G---4-x-x-4-x-x-4-x--7-x-x-7-x-x-7-x--0-x-x-0-x-x-0-x-0-x-x-0-x-x-0-x-------|
C---4-x-x-4-x-x-4-x--7-x-x-7-x-x-7-x--0-x-x-0-x-x-0-x-0-x-x-0-x-x-0-x-------| (repeat 3x)

[Pre-Chorus]

D------------------------------------------------------------------|
A------------------------------------------------------------------|
F------------------------------------------------------------------|
C---4-x-x-4-x-x-4-x--7-x-x-7-x-x-7-x--0-x-x-0-x-x-0-x-0-x-x-x-x-0--|
G---4-x-x-4-x-x-4-x--7-x-x-7-x-x-7-x--0-x-x-0-x-x-0-x-0-x-x-x-x-0--|
C---4-x-x-4-x-x-4-x--7-x-x-7-x-x-7-x--0-x-x-0-x-x-0-x-0-x-x-x-x-0--|

[Chorus]

D---------------------------------------------------------------------|
A---------------------------------------------------------------------|
F---------------------------------------------------------------------|
C---4-4-4-4-4-4-4-4--7-7-7-7-7-7-7-7--0-0-0-0-0-0-0-0-0-0-0-0-0-0-0-0-|
G---4-4-4-4-4-4-4-4--7-7-7-7-7-7-7-7--0-0-0-0-0-0-0-0-0-0-0-0-0-0-0-0-|
C---4-4-4-4-4-4-4-4--7-7-7-7-7-7-7-7--0-0-0-0-0-0-0-0-0-0-0-0-0-0-0-0-| (repeat 4x)

[Under Solo part]

[Chorus]

D---------------------------------------------------------------------|
A---------------------------------------------------------------------|
F---------------------------------------------------------------------|
C---4-4-4-4-4-4-4-4--7-7-7-7-7-7-7-7--0-0-0-0-0-0-0-0-0-0-0-0-0-0-0-0-|
G---4-4-4-4-4-4-4-4--7-7-7-7-7-7-7-7--0-0-0-0-0-0-0-0-0-0-0-0-0-0-0-0-|
C---4-4-4-4-4-4-4-4--7-7-7-7-7-7-7-7--0-0-0-0-0-0-0-0-0-0-0-0-0-0-0-0-| (repeat 4x)

[Chorus 2] -03:43-

D----------------------------------------------------------------------------|
A----------------------------------------------------------------------------|
F----------------------------------------------------------------------------|
C--7-7-7---4-4-4-4-4-4-4-4--7-7-7-7-7-7-7-7--0-0-0-0-0-0-0-0-0-0-0-0-0-0-0-0-|
G--7-7-7---4-4-4-4-4-4-4-4--7-7-7-7-7-7-7-7--0-0-0-0-0-0-0-0-0-0-0-0-0-0-0-0-|
C--7-7-7---4-4-4-4-4-4-4-4--7-7-7-7-7-7-7-7--0-0-0-0-0-0-0-0-0-0-0-0-0-0-0-0-|

[Chorus] -03:52-

D---------------------------------------------------------------------|
A---------------------------------------------------------------------|
F---------------------------------------------------------------------|
C---4-4-4-4-4-4-4-4--7-7-7-7-7-7-7-7--0-0-0-0-0-0-0-0-0-0-0-0-0-0-0-0-|
G---4-4-4-4-4-4-4-4--7-7-7-7-7-7-7-7--0-0-0-0-0-0-0-0-0-0-0-0-0-0-0-0-|
C---4-4-4-4-4-4-4-4--7-7-7-7-7-7-7-7--0-0-0-0-0-0-0-0-0-0-0-0-0-0-0-0-|
Tap to rate this tab
# A B C D E F G H I J K L M N O P Q R S T U V W X Y Z