Song name
# A B C D E F G H I J K L M N O P Q R S T U V W X Y Z

Wednesday 13 - Ghost Stories tab

-------------------------------------------------------------------------------
                             Ghost Stories - Wednesday 13
-------------------------------------------------------------------------------
Tabbed by: Lukky Sixx
http://www.youtube.com/watch?v=v-1T1PhLmGA

Tuning: Drop C

First Solo
(1:35)
D|------------------------------------------------------------------------|
A|------------------------------------------------------------------------|
F|---11-12-11--14~--12-11~--11-12-----------------------------------------|
C|-----------------------------------12~------4-5-4--7~--5-4~--4-5--------|
G|-------------------------------------------------------------------5~---|
C|------------------------------------------------------------------------|

Main Solo
(2:55)
D|--14-15-14--17--15--14~---14-15----------------14-15-14--17-15-14-12~-------------------|
A|---------------------------------15~---/14 15~------------------------17b--17pbr--15~---|
F|----------------------------------------------------------------------------------------|
C|----------------------------------------------------------------------------------------|
G|----------------------------------------------------------------------------------------|
C|----------------------------------------------------------------------------------------|

D|-----------------------------------------------------------------------|
A|----14-15-14--------14-15-14-------------------------------------------|
F|------------14-11~----------14-11~--11-9----14-11~--/12-13-------------|
C|-----------------------------------------12----------------------------|
G|-----------------------------------------------------------------------|
C|-----------------------------------------------------------------------|

D|--14-15-14-------------------------------------------------|
A|-------------------------17b-17pbr-15~---------------------|
F|-----------15br-14-12-11-----------------------------------|
C|-----------------------------------------------------------|
G|-----------------------------------------------------------|
C|-----------------------------------------------------------|

Final Solo
(4:16) 
D|-----------------------------------------------------------------------|
A|----14-15-14--------14-15-14-------------------------------------------|
F|-------------14-11~----------14-11~--11-9----14-11~--/12-13------------|
C|------------------------------------------12---------------------------|
G|-----------------------------------------------------------------------|
C|-----------------------------------------------------------------------|

D|-----------------------------------------------------------------------|
A|----14-15-14--------14-15-14-------------------------------------------|
F|------------14-11~----------14-11~--11-9----14-11~---------------------|
C|-----------------------------------------12----------------------------|
G|-----------------------------------------------------------------------|
C|-----------------------------------------------------------------------|




************************************

| /   slide up
| ~   vibrato
| b   Bend
| pbr Pre-bend release

************************************
Tap to rate this tab
# A B C D E F G H I J K L M N O P Q R S T U V W X Y Z