Song name
# A B C D E F G H I J K L M N O P Q R S T U V W X Y Z

Wednesday 13 - Burried By Christmas tab

Tuning:EADGBe
      (intro)
e|---------------------------------------------------------------------------|
B|---------------------------------------------------------------------------|
G|---7b-7p5--------------------7b-7p5----------------------------------------|
D|----------7p5-7p5-7~p5-77-----------7p5-7p5-7~p5-77------------------------|
A|---------------------------------------------------------------------------|
E|---------------------------------------------------------------------------|
      (second guitar enters)
e|---------------------------------------------------------------------------|
B|---------------------------------------------------------------------------|
G|---7b-7p5--------------------7b-7p5----------------------------------------|
D|----------7p5-7p5-7~p5-77-----------7p5-7p5-7~p5-7-------------------------|
A|---------------------------------------------------------------------------|
E|---------------------------------------------------------------------------|      
  (chorus)
    A                                                
e|---------------------------------------------------------------------------|
B|---------------------------------------------------------------------------|
G|---7b-7p5---------------------7b-7p5---------------------------------------| 
D|----------7p5-7p5-7~p5-77------------7p5-7p5-7~p5-77-----------------------|
A|---------------------------------------------------------------------------|
E|---------------------------------------------------------------------------| 
   G                             
e|---------------------------------------------------------------------------|
B|---------------------------------------------------------------------------|
G|---7b-7p5--------------------7b-7p5----------------------------------------|
D|----------7p5-7p5-7~p5-77-----------7p5-7p5-7~p5-77------------------------|
A|---------------------------------------------------------------------------|
E|---------------------------------------------------------------------------| X 2

     (verse)
     A     A     G     G     G G A
e|---------------------------------------------------------------------------|
B|---------------------------------------------------------------------------|
G|---------------------------------------------------------------------------|
D|---7\----7\----5\----5\----5-5-7\----7\----5\----5\------------------------|
A|---7\----7\----5\----5\----5-5-7\----7\----5\----5\------------------------|
E|---5\----5\----3\----3\----3-3-5\----5\----3\----3\------------------------|


| \  slide down
| b  bend
| p  pull-off
| ~  vibrato
Tap to rate this tab
 
# A B C D E F G H I J K L M N O P Q R S T U V W X Y Z