Song name
# A B C D E F G H I J K L M N O P Q R S T U V W X Y Z

Wednesday 13 - Look At What The Bats Dragged In tab

Help us improve GuitareTab! Take a short survey!
Intro:
E|--------------------------------------------------------------|
B|--------------------------------------------------------------|
G|--------------------------------------------------------------|(X2)
D|-000-000-000--023---------------------------------------------|
A|-000-000-000--023---------------------------------------------|
D|-000-000-000--023---------------------------------------------|

E|--------------------------------------------------------------|
B|--------------------------------------------------------------|
G|--------------------------------------------------------------|(X4)
D|--0000-65-00-54-0-43-0-23-------------------------------------|
A|--0000-65-00-54-0-43-0-23-------------------------------------|
D|--0000-65-00-54-0-43-0 23-------------------------------------|
PM  ....    ..    .    .

Verse:
E|--------------------------------------------------------------|
B|--------------------------------------------------------------|
G|--------------------------------------------------------------|(X4)
D|-000-000-000--023---------------------------------------------|
A|-000-000-000--023---------------------------------------------|
D|-000-000-000--023---------------------------------------------|
PM ... ... ...

E|--------------------------------------------------------------|
B|--------------------------------------------------------------|
G|--------------------------------------------------------------|(x4)
D|--0000-65-00-54-0-43-0-23-------------------------------------|
A|--0000-65-00-54-0-43-0-23-------------------------------------|
D|--0000-65-00-54-0-43-0 23-------------------------------------|
PM  ....    ..    .    .

Pre Chorus
E|---------------------------------------------------------------------------|
B|---------------------------------------------------------------------------|
G|---------------------------------------------------------------------------|
D|-0000--2320--0000-2320--0000--2320--------------0--------------------------|
A|-0000--2320--0000-2320--0000--2320--------------0--------------------------|
D|-0000--2320--0000 2320--0000--2320--000-000-000-0--------------------------|
PM ....        ....       ....        ... ... ...

Chorus:
E|--------------------------------------------------------------|
B|--------------------------------------------------------------|
G|--------------------------------------------------------------|(X4)
D|--0000-65-00-54-0-43-0-23-------------------------------------|
A|--0000-65-00-54-0-43-0-23-------------------------------------|
D|--0000-65-00-54-0-43-0 23-------------------------------------|
PM  ....    ..    .    .

Verse:
E|--------------------------------------------------------------|
B|--------------------------------------------------------------|
G|--------------------------------------------------------------|(X4)
D|-000-000-000--023---------------------------------------------|
A|-000-000-000--023---------------------------------------------|
D|-000-000-000--023---------------------------------------------|
PM ... ... ...

E|--------------------------------------------------------------|
B|--------------------------------------------------------------|
G|--------------------------------------------------------------|(x4)
D|--0000-65-00-54-0-43-0-23-------------------------------------|
A|--0000-65-00-54-0-43-0-23-------------------------------------|
D|--0000-65-00-54-0-43-0 23-------------------------------------|
Pm  ....    ..    .    .

Pre Chorus
E|---------------------------------------------------------------------------|
B|---------------------------------------------------------------------------|
G|---------------------------------------------------------------------------|
D|-0000--2320--0000-2320--0000--2320--------------0--------------------------|
A|-0000--2320--0000-2320--0000--2320--------------0--------------------------|
D|-0000--2320--0000 2320--0000--2320--000-000-000-0--------------------------|
 PM....        ....       ....        ... ... ...

SOLO
Sorry I cant Work out the solo wednesday is too good!!

AFTER SOLO
Pre Chorus
E|---------------------------------------------------------------------------|
B|---------------------------------------------------------------------------|
G|---------------------------------------------------------------------------|
D|-0000--2320--0000-2320--0000--2320--------------0--------------------------|
A|-0000--2320--0000-2320--0000--2320--------------0--------------------------|
D|-0000--2320--0000 2320--0000--2320--000-000-000-0--------------------------|
Pm ....        ....       ....        ... ... ...

Chorus:
E|--------------------------------------------------------------|
B|--------------------------------------------------------------|
G|--------------------------------------------------------------|(X4)
D|--0000-65-00-54-0-43-0-23-------------------------------------|
A|--0000-65-00-54-0-43-0-23-------------------------------------|
D|--0000-65-00-54-0-43-0 23-------------------------------------|
PM  ....    ..    .    .
Related for Look At What The Bats Dragged In tab