Guitaretab - guitar tabs
Song name
# A B C D E F G H I J K L M N O P Q R S T U V W X Y Z

Wednesday 13 - Too Much Blood tab

Tabbed by Robin Graves

Intro:

Eb--------------|
Bb--------------|
Gb--------------|
Db--------------|
Ab--1-3333-1----|
Db--1-3333-1----|

Riff 2:

Eb----------------------------|
Bb----------------------------|
Gb----------------------------|
Db--88-10-8-8-10--88-10-XXXX--|
Ab--66--8-6-6--8--66-8--XXXX--|
Db----------------------------|

Riff 3:
[ Tab from: http://www.guitaretab.com/w/wednesday-13/76828.html ]
Eb-----------------------------------------------------------|
Bb-----------------------------------------------------------|
Gb-----------------------------------------------------------|
Db-----------------------------------------------------------|
Ab--1-333-3-1-333-3-1-333-3-1-333-3-66666666-88888888--------|
Db--1-333-3-1-333-3-1-333-3-1-333-3-66666666-88888888--------|

Riff 4:

Eb--------------------------------------|
Bb--------------------------------------|
Gb--------------------------------------|
Db--------------------------------------|
Ab--66666666-88888888-99999999-88888888-|
Db--66666666-88888888-99999999-88888888-|

Riff 5:
Eb------------------------------------------|
Bb------------------------------------------|
Gb------------------------------------------|
Db------------------------------------------|
Ab--1-333-3-66666666-88888888---------------|
Db--1-333-366666666-88888888--------------|
Related for Too Much Blood tab