Song name
# A B C D E F G H I J K L M N O P Q R S T U V W X Y Z

Wednesday 13 - Faith In The Devil tab

Tabbed by Robin Graves

Faith in The Devil

Eb----------------------------|
Bb----------------------------|
Gb----------------------------|
Db----------------------------|
Ab--1-3-6-8-6-3-1-3-1-3-3-1-3-|
Db--1-3-6-8-6-3-1-3-1-3-3-1-3-|

Verse:

Eb------------|
Bb------------|
Gb------------|
Db------------|
Ab--1-3-6-3---|
Db--1-3-6-3---|

(play intro riff 4x)

Eb----------------------------|
Bb----------------------------|
Gb----------------------------|
Db----------------------------|
Ab--1-3-6-8-6-3-1-3-1-3-3-1-3-|
Db--1-3-6-8-6-3-1-3-1-3-3-1-3-|

(5th time)

Eb------------------------------|
Bb------------------------------|
Gb------------------------------|
Db------------------------------|
Ab--1-3-6-8-6-3-1-3-1-3-3-1-3-6-|
Db--1-3-6-8-6-3-1-3-1-3-3-1-3-6-|

Chorus:

Eb-----------------------------------------|
Bb-----------------------------------------|
Gb-----------------------------------------|
Db--6-6666---------------------------------|
Ab--4-4444--6-6666-33-1-333-1-333-1-333-1--|
Db----------6-6666-33-1-333-1-333-1-333-1--|

Eb------------------------------------------------------|
Bb------------------------------------------------------|
Gb------------------------------------------------------|
Db--6-6666----------------------------------------------|
Ab--4-4444--6-6666-8-8888-6~-12-------------------------|
Db----------6-6666-8-8888-6~-12—slide upwards-----------|

Riff During Solo(play 4x)
Eb------------|
Bb------------|
Gb------------|
Db------------|
Ab--1-3-6-3---|
Db--1-3-6-3---|

(5th time)


Eb-----------|
Bb-----------|
Gb-----------|
Db-----------|
Ab--1-3-6----|
Db--1-3-6----|

End:

Eb------------------|
Bb------------------|
Gb------------------|
Db------------------|
Ab--1-3-3-1-3-6-3~--|
Db--1-3-3-1-3-6-3~--|
Tap to rate this tab
# A B C D E F G H I J K L M N O P Q R S T U V W X Y Z