Guitaretab - guitar tabs
Song name
# A B C D E F G H I J K L M N O P Q R S T U V W X Y Z

Wednesday 13 - Buried With Children tab

Tabbed by Robin Graves

Intro:

Eb------------------------------------------------|
Bb------------------------------------------------|
Gb------------------------------------------------|
Db------------------------------------------------|
Ab--77-4-4444-77-4--10-9-77-4-4444-22-4-----------|
Db--77-4-4444-77-4--10-9-77-4-4444-22-4—----------|

Verse/Chorus:

Eb------------------------------------|
Bb------------------------------------|
Gb------------------------------------|
Db------------------------------------|
Ab--7-4--44-7-4-9-7-4-2-4-2-----------|
Db--7-4--44-7-4-9-7-4-2-4-2—----------|
[ Tab from: http://www.guitaretab.com/w/wednesday-13/78224.html ]
Eb---------------------------------------------------------|
Bb---------------------------------------------------------|
Gb---------------------------------------------------------|
Db---------------------------------------------------------|
Ab—4~--4~--7-4--7-4-7-4444-7-4444-7-4444-7-44-2-4----------|
Db—4~--4~--7-4--7-4-7-4444-7-4444-7-4444-7-44-2-4----------|

Pre-Chorus:(play this piece 3x)

Eb----------------------------------|
Bb----------------------------------|
Gb----------------------------------|
Db----------------------------------|
Ab--99-999-999-999-4444-2-4---------|
Db--99-999-999-999-4444-2-4—--------|

(play this piece once)

Eb-------------------------------|
Bb-------------------------------|
Gb-------------------------------|
Db-------------------------------|
Ab--22-222-222-222-222-----------|
Db--22-222-222-222-222—----------|

End:
Eb----------|
Bb----------|
Gb----------|
Db----------|
Ab--777-4~--|
Db--777-4~--|
Related for Buried With Children tab