Song name
# A B C D E F G H I J K L M N O P Q R S T U V W X Y Z

Wednesday 13 - Happily Ever Cadever tab

Wednesday 13
Happily Ever Cadever
Fang Bang
======================

This is my personal favorite song on the Fangbang album... I got the intro correct, i am 
sure it is correct, i tested it with many people.

One problem... if you don't have the right settings on your amp... it really doesn't 
like it

ok

Drop D tuning...
E *thin string*
B
G
D
A
D *fat string*


Intro:
E|----------------------------------|
B|----------------------------------|
G|----------------------------------|
D|----------------------------------| I can't help you with the beat because
A|11-11-11-11-11-11-11-==(Eleven)=--|  the only way you can hear it is by ear
D|-8--8--8--8--8--8--8-88888888888--|

play this three times and (on the third time), add this afterwards:::

{Well I broke my nail on your coffin lid...}
E|----------------------------------|
B|----------------------------------|
G|----------------------------------|
D|8-8-8-8---6-6-6-6-----------------|
A|8-8-8-8---6-6-6-6-----------------|
D|6-6-6-6---4-4-4-4-----------------|

gotcha! here is the intro to "Happily Ever Cadever"
Tap to rate this tab
# A B C D E F G H I J K L M N O P Q R S T U V W X Y Z