Guitaretab - guitar tabs
Song name
# A B C D E F G H I J K L M N O P Q R S T U V W X Y Z

Wednesday 13 - Happily Ever Cadaver tab

Tabbed By Robin Graves

Intro:

Eb------------------------------|
Bb------------------------------|
Gb------------------------------|
Db------------------------------|
Ab--10-10-10-10-10-10-10p9-10p9-|
Db--10-10-10-10-10-10-10p9-10p9-|

First Verse:

Eb-------------------------------------------------------------|
Bb-------------------------------------------------------------|
Gb-------------------------------------------------------------|
Db-------------------------------------------------------------|
Ab--10-10-10-10-10-10-10-10-10-10-10-10--55-555-33-333---------|
Db--10-10-10-10-10-10-10-10-10-10-10-10--55-555-33-333--------|

Eb------------------------------|
Bb------------------------------|
Gb------------------------------|
Db------------------------------|
Ab--10-10-10-10-10-10--555-555--|
Db--10-10-10-10-10-10--555-555--|

Pre-Chorus:
[ Tab from: http://www.guitaretab.com/w/wednesday-13/82826.html ]
Eb---------------------------------------------------------------------------------|
Bb---------------------------------------------------------------------------------|
Gb---------------------------------------------------------------------------------|
Db--99-999-999-999--77-777-777-777--101010-101010101010-55-555-555-----------------|
Ab--77-777-777-777--55-555-555-555--8-8-88-8-8-8-8-8--33-333-333-----------------|
Db---------------------------------------------------------------------------------|

Eb--------------------------------------------------------------------|
Bb--------------------------------------------------------------------|
Gb--------------------------------------------------------------------|
Db--99-999-999-999--77-777-777-777--101010-101010101010-111111111111--|
Ab--77-777-777-777--55-555-555-555--8-8-88-8-8-8-8-8--9-9-99-9-9---|
Db--------------------------------------------------------------------|

End:

Eb----------------------------------|
Bb----------------------------------|
Gb----------------------------------|
Db----------------------------------|
Ab--10-10-10-10-10-10-10p9-10p9-5~--|
Db--10-10-10-10-10-10-10p9-10p9-5~--|
Related for Happily Ever Cadaver tab