Guitaretab - guitar tabs
Song name
# A B C D E F G H I J K L M N O P Q R S T U V W X Y Z

Wednesday 13 - Look What The Bats Dragged In tab

Tabbed by Robin Graves

Intro:(palm mute all open chords)

Eb---------------------|
Bb---------------------|
Gb---------------------|
Db---------------------|
Ab--000-000-0000-0-1-3-|
Db--000-000-0000-0-1-3-|

Verse:(palm mute open chords)

Eb-----------------------------------|
Bb-----------------------------------|
Gb-----------------------------------|
Db-----------------------------------|
Ab--0000-65-00-54-0-43-0-1-3---------|
Db--0000-65-00-54-0-43-0-1-3--------|

Chorus:(palm mute open chords)
[ Tab from: http://www.guitaretab.com/w/wednesday-13/82827.html ]
Eb-----------------|
Bb-----------------|
Gb-----------------|
Db-----------------|
Ab--0000-1-3-1-0---|
Db--0000-1-3-1-0---|

Eb------------------------|
Bb------------------------|
Gb------------------------|
Db------------------------|
Ab------------------------|
Db--000-0000-0-00--------|

Riff During Solo:

Eb---------------------------------------------|
Bb---------------------------------------------|
Gb---------------------------------------------|
Db---------------------------------------------|
Ab--44-444-22-222-44-444-55-555-55-555---------|
Db--44-444-22-222-44-444-55-555-55-555--------|
Related for Look What The Bats Dragged In tab