Song name
# A B C D E F G H I J K L M N O P Q R S T U V W X Y Z

Wednesday 13 - American Werewolves In London tab

Tabbed by Robin Graves

Intro:

Eb------------------------------------------|
Bb------------------------------------------|
Gb------------------------------------------|
Db------------------------------------------|
Ab--111-1-3-1-333-3-3-4-444-4-4-6-111-1-3-1-|
Db--111-1-3-1-333-3-3-4-444-4-4-6-111-1-3-1-|

Verse:

Eb----------------------------------|
Bb----------------------------------|
Gb----------------------------------|
Db----------------------------------|
Ab--111-1-1-333-3-3-444-4-4---------|
Db--111-1-1-333-3-3-444-4-4—--------|

Pre-chorus:

Eb------------------------------------------------------------------------------|
Bb------------------------------------------------------------------------------|
Gb------------------------------------------------------------------------------|
Db------------------------------------------------------------------------------|
Ab-3333333333333333-1111111111111111-4444444444444444-3333333333333333----------|
Db—3333333333333333-1111111111111111-4444444444444444-3333333333333333----------|

Chorus:

Eb-------------------------------------------------------|
Bb-------------------------------------------------------|
Gb-------------------------------------------------------|
Db-66-666-666-666-55-555-555-555-33-333-333-333----------|
Ab—44-444-444-444-33-333-333-333-11-111-111-111----------|
Db-------------------------------------------------------|

Cont.

Eb--------------------------------|
Bb--------------------------------|
Gb--------------------------------|
Db--------------------------------|
Ab--44-444-444-444-66-666-666-666-|
Db--44-444-444-444-66-666-666-666-|
Tap to rate this tab
# A B C D E F G H I J K L M N O P Q R S T U V W X Y Z