Guitaretab - guitar tabs
Song name
# A B C D E F G H I J K L M N O P Q R S T U V W X Y Z

Wednesday 13 - Rot For Me tab

Tabbed by Robin Graves

I know most of the Wednesday 13 songs are in Drop-D or Drop-Db, but this just doesn't
right in either of those tunings, so I'm tabbing this in drop-C.

Intro:
[ Tab from: http://www.guitaretab.com/w/wednesday-13/82932.html ]
D-------------------------------------------------------------------------------------|
A-------------------------------------------------------------------------------------|
F-------------------------------------------------------------------------------------|
C-------------------------------------------------------------------------------------|
G-------------------------------------------------------------------------------------|
Có0-22-0-2-0-2-0-2-333-0-22-0-2-0-2-0-2-555-0-22-0-2-0-2-0-2-333-0-22-0-2-0-2---------|

Verse/Chorus: (palm mute for verse)

D----------------------------------------------|
A----------------------------------------------|
F----------------------------------------------|
C----------------------------------------------|
G--0-22-0-2-0-2-0-2-333-0-22-0-2-0-2-0-2-555---|
C--0-22-0-2-0-2-0-2-333-0-22-0-2-0-2-0-2-555---|

Pre-Chorus:

D---------------------|
A---------------------|
F---------------------|
C---------------------|
G--0-22-0-2-0-2-0-2---|
C--0-22-0-2-0-2-0-2---|

Bridge:

D---------------------------|
A---------------------------|
F---------------------------|
C---------------------------|
G-2~-3-2~-5-2~-3-2~---------|
Có2~-3-2~-5-2~-3-2~---------|
Related for Rot For Me tab