Guitaretab - guitar tabs
Song name
# A B C D E F G H I J K L M N O P Q R S T U V W X Y Z

Wednesday 13 - House By The Cemetary tab

House By The Cemetary

Tabbed by Robin Graves

I'm not saying this is 100% right, i'm not even sure it's 50% right.Another tab for Zephon, though.

Verse:

D----------------|
A----------------|
F----------------|
C----------------|
G--0-3-0---------|
C--0-3-0--|

Post Verse:

D--------------------------------|
A--------------------------------|
F--------------------------------|
C--------------------------------|
G--00-3-0-0-3-00-3-0-0-5---------|
C--00-3-0-0-3-00-3-0-0-5--|


Pre-chorus:
[ Tab from: http://www.guitaretab.com/w/wednesday-13/85837.html ]
D---------------------|
A---------------------|
F---------------------|
C---------------------|
G--0-3-6-3-5-3-5-3-0--|
C--0-3-6-3-5-3-5-3-0--|


Chorus:

D----------------------------|
A----------------------------|
F----------------------------|
C----------------------------|
G--0-3-5-3-6-3-5-3-0---------|
C--0-3-5-3-6-3-5-3-0--|

Riff After Pre-Chorus (2nd time only)(if this isn't right, it's easy to hear what to 
i was in a hurry and forgot what actually is played as i tabbed it from memory)

D-----------------|
A-----------------|
F-----------------|
C-----------------|
G-6-5-3-0--|
C--6-5-3-0--------|
Related for House By The Cemetary tab