Guitaretab - guitar tabs
Song name
# A B C D E F G H I J K L M N O P Q R S T U V W X Y Z

Wednesday 13 - Thank You Satan tab

Intro/Verse/Chorus/Solo/Outro 
D|-------------------------------| 
A|-------------------------------| 
F|-------------------------------| 
C|-------------------------------| 
G|-0-----2-----5-----4-----7-----| 
C|-0(x6)-2(x6)-5(x6)-4(x3)-7(x3)-| 

D|-------------------------------| 
A|-------------------------------| 
F|-------------------------------| 
C|-------------------------------| 
G|-0-----2-----5-----4-----2-----| 
C|-0(x6)-2(x6)-5(x6)-4(x3)-2(x3)-| 

For the first half of the verse 
there is a palm mute, but it's only 
a slight palm mute. The part after 
the Solo is a heavier palm mute.
D|---------------------| 
A|---------------------| 
F|---------------------| 
C|---------------------| 
G|-0-------------------| 
C|-0-------------------| 

Pre-Chorus 
D|---------------------------------------------| 
A|---------------------------------------------| 
F|---------------------------------------------| 
C|---------------------------------------------| 
G|-2----5----5-4-0-----2-0-----2----5----7-----| 
C|-2----5----5-4-0-----2-0-----2----5----7-----| 
[ Tab from: http://www.guitaretab.com/w/wednesday-13/89867.html ]
Solo 
D|-------------------------------------------| 
A|-15-15-14-14-12-12-14-14-15-15-14-14-12-14-| 
F|-------------------------------------------| 
C|-------------------------------------------| 
G|-------------------------------------------| 
C|-------------------------------------------| 

D|----------------------------------------------| 
A|-15-15-14-14-12-12-14-14-15-15-14-14-17-17-17-| 
F|----------------------------------------------| 
C|----------------------------------------------| 
G|----------------------------------------------| 
C|----------------------------------------------| 

End on: 
D|-----------| 
A|-15~-------| 
F|-----------| 
C|-----------| 
G|-----------| 
C|-----------| 

Guitar 2 
D|-22-22-21-21-19-19-21-21-22-22-21-21-19-21-| 
A|-------------------------------------------| 
F|-------------------------------------------| 
C|-------------------------------------------| 
G|-------------------------------------------| 
C|-------------------------------------------| 

D|-22-22-21-21-19-19-21-21-22-22-21-21-24-24-24-| 
A|----------------------------------------------| 
F|----------------------------------------------| 
C|----------------------------------------------| 
G|----------------------------------------------| 
C|----------------------------------------------| 

End on: 
D|-22~-------| 
A|-----------| 
F|-----------| 
C|-----------| 
G|-----------| 
C|-----------| 
Related for Thank You Satan tab
Thank You Satan chords by Wednesday 13