Song name
# A B C D E F G H I J K L M N O P Q R S T U V W X Y Z

Weebls Stuff - Shut Up Woman Get On My Horse tab

Shut Up Woman Get On My Horse (Metal Remix)
-By Gary Cancer and Dewy (Original song from Weebl's Stuff)

Tuning: E Standard
I'm too lazy to write out the rhythm, but its not hard to figure out

( . ) = palm mute

Rhythm guitar (repeat throughout the song)
E|--------------------------------------------------|
B|--------------------------------------------------|
G|-------------------------6666---------------------|
D|-444444444444444477777777666622224444444444444444-|
A|-444444444444444477777777444422224444444444444444-|
E|-222222222222222255555555----00002222222222222222-|
   .. ... ... ... ... ... ... ... ... ... ... ... .

e|--------------------------------------------------|
B|--------------------------------------------------|
G|-66666666-----------------------------------------|
D|-6666666677772222------------------4--------------|
A|-4444444477772222------------------4--------------|
E|---------55550000------------------2--------------|
   .. ... ... ... .  (only at the end, let this chord ring)


Solo (play twice)

e|-17-171717-16------16-17-17-16------------------------------------------|
B|-------------17-17----------17-17-14-14-14-17-17-17-12-12-12-14-14-14-10\|
G|------------------------------------------------------------------------|
D|------------------------------------------------------------------------|
A|------------------------------------------------------------------------|
E|------------------------------------------------------------------------|
Tap to rate this tab
 
# A B C D E F G H I J K L M N O P Q R S T U V W X Y Z