Song name
# A B C D E F G H I J K L M N O P Q R S T U V W X Y Z

Weebls Stuff - Amazing Horse tab

Amazing Horse (Metal Remix) by Gary Cancer and Dewy
(Original song from Weebl's Stuff)


Rhythm (Drop C#) .=Palm Mute
D#|--------------------------------------------------------|
A#|--------------------------------------------------------|
F#|--------------------------------------------------------|
C#|-5-5-5--5-5-5--5-5-5--5-5-5--8-8-8--8-8-8--0-0-0--3-3-3-|
G#|-5-5-5--5-5-5--5-5-5--5-5-5--8-8-8--8-8-8--0-0-0--3-3-3-|
C#|-5-5-5--5-5-5--5-5-5--5-5-5--8-8-8--8-8-8--0-0-0--3-3-3-|
    . .    . .    . .    . .    . .    . .    . .    . .

D#|--------------------------------------------------------|
A#|--------------------------------------------------------|
F#|--------------------------------------------------------|
C#|-5-5-5--5-5-5--5-5-5--5-5-5--0-0-0--0-0-0--8-8-8--3-3-3-|
G#|-5-5-5--5-5-5--5-5-5--5-5-5--0-0-0--0-0-0--8-8-8--3-3-3-|
C#|-5-5-5--5-5-5--5-5-5--5-5-5--0-0-0--0-0-0--8-8-8--3-3-3-|
    . .    . .    . .    . .    . .    . .    . .    . .


Solo (Drop C#)
D#|-18--17-----18--17--------------------------------------|
A#|-------18---------18---15---18--------18----------------|
F#|---------------------------------17---------------------|
C#|--------------------------------------------------------|
G#|--------------------------------------------------------|
C#|--------------------------------------------------------|

There you go, have fun!
Tap to rate this tab
# A B C D E F G H I J K L M N O P Q R S T U V W X Y Z