Weebls Stuff - Pork tab

-------------------------------------------------------------------------------
			     Pork - Weebls Stuff
-------------------------------------------------------------------------------
Tabbed by: Krindor
Email: ...

Tuning: Standard Tuning (For electric guitar with Overdrive but can be played otherwise)

e|---------------------------------------------------------------------------|
B|---------------------------------------------------------------------------|
G|---------------------------------------------------------------------------|
D|4--4-44-4-4--7--7-77-7-7--9--9-99-9-9--11--11-1111-11-11-------------------|
A|4--4-44-4-4--7--7-77-7-7--9--9-99-9-9--11--11-1111-11-11-------------------|
E|2--2-22-2-2--5--5-55-5-5--7--7-77-7-7--9---9--9-9--9--9--------------------|
x4

e|---------------------------------------------------------------------------|
B|---------------------------------------------------------------------------|
G|---------------------------------------------------------------------------|
D|4--4-44-4-44-4-44-4-44-4-44-4-44-4-4--9-7----------------------------------|
A|4--4-44-4-44-4-44-4-44-4-44-4-44-4-4--9-7----------------------------------|
E|2--2-22-2-22-2-22-2-22-2-22-2-22-3-3--7-5----------------------------------|
x2

Thank you and enjoy.

If you do not understand the rhythem follow this link http://www.weebls-stuff.com/songs/Pork/
Tap to rate this tab
 
# A B C D E F G H I J K L M N O P Q R S T U V W X Y Z