Song name
# A B C D E F G H I J K L M N O P Q R S T U V W X Y Z

Weebls Stuff - Amazing Horse tab

-------------------------------------------------------------------------------
	Amazing Horse (Metal version) by Gary Cancer and Dwey - Original Version from Weebls Stuff
-------------------------------------------------------------------------------
Tabbed by: Krindor
Email: ...
This is my first tab.
Tuning: Standard Tuning.

Main verse.
e|----------------------------------------------------------------------------|
B|----------------------------------------------------------------------------|
G|----------------------------------------------------------------------------|
D|--4--4--4-------4--4--4-------4--4--4-------4--4--4-------7--7--7---6--6--6-|
A|--4--4--4-------4--4--4-------4--4--4-------4--4--4-------7--7--7---6--6--6-|
E|--2--2--4-------2--2--2-------2--2--2-------2--2--2-------5--5--5---4--4--4-|
Repeat X2

Solo
e|--16-16-16--11-11-11--16-16-16--9-9-9--11-11-11--7-7-7--9-9-9--------------|
B|---------------------------------------------------------------------------|
G|---------------------------------------------------------------------------|
D|---------------------------------------------------------------------------|
A|---------------------------------------------------------------------------|
E|---------------------------------------------------------------------------|

e|--16-16-16--11-11-11--16-16-16--9-9-9--11-11-11--7-7-7--9-9-9--------------|
B|--------------------------------------------------------------7------------|
G|---------------------------------------------------------------------------|
D|---------------------------------------------------------------------------|
A|---------------------------------------------------------------------------|
E|---------------------------------------------------------------------------|

Repeat main verse at the end.

If you do not get the rhythem listen to the song at http://www.youtube.com/watch?v=URR--H97sYQ
Tap to rate this tab
 
# A B C D E F G H I J K L M N O P Q R S T U V W X Y Z