Song name
# A B C D E F G H I J K L M N O P Q R S T U V W X Y Z

Weebls Stuff - Amazing Horse tab

-------------------------------------------------------------------------------
                               Amazing Horse 
-------------------------------------------------------------------------------

Tuning:standard

e|---------------------------------------------------------------------------|
B|---------------------------------------------------------------------------|
G|-----6-----6-----6-----6-----9-----9----------4----------------------------|
D|-----4-----4-----4-----4-----7-----7----6-----2----------------------------|
A|-x-x---x-x---x-x---x-x---x-x---x-x------4-x-x------------------------------|
E|------------------------------------x-x------------------------------------|
    
e|-------5-5-4--------5-5-4--------------------------------------------------|
B|-------------5-5-5--------5-5-5--2-2-2-5-5-5-------------------------------|
G|---------------------------------------------4-4-4-6-6-6-------------------|
D|---------------------------------------------------------------------------|
A|---------------------------------------------------------------------------|
E|---------------------------------------------------------------------------|

e|-------5-5-4--------5-5-4-------5-5-5-4-4-4-2-2-2-4-4-4--------------------|
B|-------------5-5-5--------5-5-5--------------------------------------------|
G|---------------------------------------------------------------------------|
D|---------------------------------------------------------------------------|
A|---------------------------------------------------------------------------|
E|---------------------------------------------------------------------------|



************************************

| /   slide up
| \   slide down
| h   hammer-on
| p   pull-off
| ~   vibrato
| +   harmonic
| x   Mute note
| b   Bend
| pb  Pre-bend
| br  Bend release
| pbr Pre-bend release
| brb Bend release bend
Tap to rate this tab
 
# A B C D E F G H I J K L M N O P Q R S T U V W X Y Z