Song name
# A B C D E F G H I J K L M N O P Q R S T U V W X Y Z

Weedeater - God Luck And Good Speed tab

God Luck and Good Speed
Weedeater
God Luck and Good Speed
D Standard (DGCFAD)

Very easy song, but a damn good one. Figure out the timing yourself by playing along. 
be too hard.

Intro/Chorus:
D|------------------------|
A|------------------------|
F|------------------------|
C|--9--7-------7----------|
G|--7--5----9--5-------2--|
D|--0-----0/7-----3h5--0--|

Verse:
D|---------------------------|---------------------------|
A|---------------------------|---------------------------|
F|---------------------------|---------------------------|
C|--9--9--7/9--------------7-|-9--9--7/9-----------------|
G|--7--7--5/7--------------5-|-7--7--5/7-----------------|
D|--0--0----0--0--0--0--7----|-0--0-------0--0--0--7--3--|

Play this first part^ and then this ending^

E|------------------------------|
B|------------------------------|
G|------------------------------|
D|--9--9--------12--11--11--10--|
A|--7--7--------10--9---9---8---|
E|--0--0--0--0------------------|

Followed by the first part again and this ending^

That's the whole song.
Tap to rate this tab
 
# A B C D E F G H I J K L M N O P Q R S T U V W X Y Z