Weedeater - Time Served tab

Tabbed by:Rebeltildeth87
Song: Time Served
Artist: Weedeater

I think they play in D standard which is DGCFAD
|----------------------|
|----------------------|
|----------------------|
|----/9----------------|
|-2--/7----5-----------|
|-0------0h3-0-3b-0-3b-|


Wanted for something I didnt do
|----------------------|
|----------------------|
|----------------------|
|----------------------|
|-7--------------------|
|-5--------------------|

God damn you fuckin pig
|----------------------|
|----------------------|
|----------------------|
|----------------------|
|-5--------------------|
|-3--------------------|
Tap to rate this tab
 
# A B C D E F G H I J K L M N O P Q R S T U V W X Y Z