Guitaretab - guitar tabs
Song name
# A B C D E F G H I J K L M N O P Q R S T U V W X Y Z

Weekend - Into The Morning tab

Well since I've been looking for tabs to this song for ages without any luck, I finally
to make one.
This is my first guitar tab, so please be nice!

Intro:

e|-------------------|
b|-------------------|
g|9--9--9--9--99-----|
d|9--9--9--9--99 X 4-|
a|70070070070077
e|--------------

Verse:
Play palm muteddddddd

e|----------------|
b|----------------|
g|99999999--------| X 10
d|9999999977777777|
a|7777777777777777|
e|--------55555555|

Then it switches up to (muted):
(it was young love at it's best...)

e|--------------------------------|
b|--------------------------------|
g|--------------------------------|
d|99999999999999997777777777777777| X 1
a|99999999999999997777777777777777|
e|77777777777777775555555555555555|

Chorus time!
(Figure out the rythem, it's not that hard)

e|-------------------------------------------|
b|-------------------------------------------|
g|99999999999--------------------------------|
d|9999999999999999999999777777777772222999999| X 2
a|7777777777799999999999777777777772222999999|
e|-----------77777777777555555555550000777777|

Verse once more:
(still muted)

e|----------------|
b|----------------|
g|99999999--------| X 10
d|9999999977777777|
a|7777777777777777|
e|--------55555555|

Young love at it's best part again: (muteeeeeee)
e|--------------------------------|
b|--------------------------------|
g|--------------------------------|
d|99999999999999997777777777777777| X 1
a|99999999999999997777777777777777|
e|77777777777777775555555555555555|
[ Tab from: http://www.guitaretab.com/w/weekend/176618.html ]
Chorus again:
e|-------------------------------------------|
b|-------------------------------------------|
g|99999999999--------------------------------|
d|9999999999999999999999777777777772222999999| X 2
a|7777777777799999999999777777777772222999999|
e|-----------77777777777555555555550000777777|

Intro again:
e|-----------------------|
b|-----------------------|
g|9--9--9--9--99---------|
d|9--9--9--9--99---------| X 2
a|70070070070077---------|
e|-----------------------|

Finally a new part!
Bridge: (muted)
e|------------------------------------|
b|------------------------------------|
g|999999998888999999------------------|
d|999999998888999999777777776666777777| X 4
a|777777776666777777777777776666777777|
e|------------------555555554444555555|

Young love at it's best part again:
(muted except the last note)
e|-----------------|
b|-----------------|
g|-----------------|
d|99999999999999997| X 1
a|99999999999999997|
e|77777777777777775|

Then after that it goes:
e|------------------------------------------------|
b|------------------------------------------------|
g|------------------------------------------------|
d|9--------2--------7--------2222222299999999 X 1-|
a|9--------2--------7--------2222222299999999-----|
e|7--------0--------5--------0000000077777777-----|

Chorus again:
e|-------------------------------------------|
b|-------------------------------------------|
g|99999999999--------------------------------|
d|9999999999999999999999777777777772222999999| X 1
a|7777777777799999999999777777777772222999999|
e|-----------77777777777555555555550000777777|

SOLO!
Rythem guitar plays the chorus part, I can't figure this solo out for crap.

Ending bit:
e|---------------|
b|---------------|
g|---------------|
d|9--------7-----| X 1
a|9--------7-----|
e|7--------5-----|

and that's it!
Sorry about the solo, I did try, but I just can't get it. Hope you enjoy my tab =)
Related for Into The Morning tab
×
Best way to learn
"Into The Morning"