Song name
# A B C D E F G H I J K L M N O P Q R S T U V W X Y Z

Ween - Lmlyp tab

-------------------------------------------------------------------------------
			     L.M.L.Y.P. - Ween
-------------------------------------------------------------------------------
Tabbed by: batteryacid
Email: tburke_9@hotmail.com

Tuning: Standard

This sounds 100% accurate with the album version to me

e|---------------------------------------------------------------------------|
B|---------------------------------------------------------------------------|
G|-------------------------3p2---2-------------------------------------------|
D|------------------2---5------5---5-----2-----------------------------------|
A|-----------2---5---------------------5-------------------------------------|
E|----0---3------------------------------------------------------------------|

It sounds like he plays the main riff an octave higher at some point during live solos
which I play like this

e|---------------------------------------------------------------------------|
B|---------------------------------------------------------------------------|
G|-------------------------------15p14---14----------------------------------|
D|----------------------14---17--------17---17------14-----------------------|
A|-------------14---17---------------------------17--------------------------|
E|----12---15----------------------------------------------------------------|


| /  slide up
| \  slide down
| h  hammer-on
| p  pull-off
| ~  vibrato
| +  harmonic
| x  Mute note
===============================================================================
Tap to rate this tab
# A B C D E F G H I J K L M N O P Q R S T U V W X Y Z