Song name
# A B C D E F G H I J K L M N O P Q R S T U V W X Y Z

Ween - The Mollusk tab

-------------------------------------------------------------------------------
			     The Mollusk- Ween
-------------------------------------------------------------------------------
Tabbed by:codo24769


Tuning:

e|--------------------------| \
B|--------------------------|  \
G|--------------------------|   \ guitar riff for intro/ verses
D|------0------0------------|   /
A|----2------0--------------|  /
E|--3------2----------------| /

for the last two lines of the verses use the chord proggression

C  Em  Am  F
the rythm is really simple

horn solo
e|-----------------------------------------------------------------|
B|-10-12-13-12-10-12-10-12--10-12-10--10-13-12-10-12---------------|
G|------------------------12--------12---------------12~-----------|
D|-----------------------------------------------------------------|
A|-----------------------------------------------------------------|
E|-----------------------------------------------------------------|

e|---------------------12-10---------------------------------------|
B|-10-13-12-10-12-10-12-----10---10-13-12-10-12-10-----------------|
G|------------------------------------------------9----------------|
D|-----------------------------------------------------------------|
A|-----------------------------------------------------------------|
E|-----------------------------------------------------------------|

e|-----------------------------------------------------------------|
B|------------------------------------10-12-13-12-10-12------------|
G|---12-11-9--9-11-12-11-9-11-9-11-12------------------------------|
D|-12-------12-----------------------------------------------------|
A|-----------------------------------------------------------------|
E|-----------------------------------------------------------------|

e|---------------------------10-12---------------------------------|
B|-10---------10--10-12-10-13-----13-12-10-------------------------|
G|---9-12-9-12--12---------------------------12--------------------|
D|-----------------------------------------------------------------|
A|-----------------------------------------------------------------|
E|-----------------------------------------------------------------|




| /  slide up
| \  slide down
| h  hammer-on
| p  pull-off
| ~  vibrato
| +  harmonic
| x  Mute note
===============================================================================
Tap to rate this tab
# A B C D E F G H I J K L M N O P Q R S T U V W X Y Z