Song name
# A B C D E F G H I J K L M N O P Q R S T U V W X Y Z

Ween - Take Me Away tab

intro/ transition thing
e-13-------------------------------------------------|
b-14-------------------------------------------------|
g-15-------------------------------------------------|
d-15--strum a lot------------------------------------|
a-13-------------------------------------------------|
E-13-------------------------------------------------|


Verse
e-----7---5--5-5--3--3--3/-5--5-5------------------|
b-----9---7--7-7--5--5--5/-7--7-7------------------|
g-----8---6--6-6--4--4--4/-6--6-6------------------|
d-----9---7--7-7--5--5--5/-7--7-7------------------|
a-----7---5--5-5--3--3--3/-5--5-5------------------|
E--0-----------------------------------------------|

repeat that alot then

e-----------------------------------------|
b-----------------------------------------|
g-----2-----------------------------------|repeat that until the end of
d--2--2-----------------------------------|section
a--2--0-----------------------------------|
E--0--------------------------------------|
Tap to rate this tab
# A B C D E F G H I J K L M N O P Q R S T U V W X Y Z