Song name
# A B C D E F G H I J K L M N O P Q R S T U V W X Y Z

Ween - Tick tab

------------------------------------------------------------------------------
			                              Tick - Ween
------------------------------------------------------------------------------
Tabbed by: SyntheticSocks

Tuning: Standard EADGBE

Verse riff
E----------------------------------------------------------|
B----------------------------------------------------------|
G--9--9--9-7---7-9--9--9-7---7-9--9--9-7---7-9--9--9-7-----|
D------------9-------------9-------------9---------------7-|
A------------------------------------------------------9---|
E----------------------------------------------------------|

E-----------------------------------------------------------|
B-----------------------------------------------------------|
G-----------------------------------------------------------|
D--9--9--9-7---7-9--9--9-7---7-9--9--9-7---7*9-7---9b-7-----|
A------------9-------------9-------------9-------9-------9--|
E-----------------------------------------------------------|


   Pre-chorus riff
E--------------------------------------------------------------|
B--------------------------------------------------------------|
G--9-8-7-9-8-7-9-8-7-9-8-7-9--9--------------------------------|
D--9-8-7-9-8-7-9-8-7-9-8-7-9--9--9-8-7-9-8-7-9-8-7-9-8-7-9--9--|
A--------------------------7--7--9-8-7-9-8-7-9-8-7-9-8-7-9--9--|
E--------------------------------------------------------7--7--|

        Chorus                                                              Fill
E-----------------                             E---------------------|
B-----------------                            B----------------------|
G--4----7----9----                            G----------------------|
D--5----7----9----                            D-------7-9-7----7-----|
A--5----5----7----                             A--7-10-------10------|
E--3----5----7----                              E--------------------|

   End of chorus
E--2(3)-----------------|
B--3---------2(3)-------|
G--2---------2----------|
D--0---------2----------|
A------------0----------|
E-----------------------|

I feel a tick in my head - and he's sucking on my head
In the morning I'll be dead - if he doesn't leave my head
Why can't he go away - why does he have to stay
Maybe he wanna play - but I can only say

I'll get you- I'll burn you - I'll crush you - I'll flush you (down down)
the toilet where you spiral (around - round)
aw tick - mmm tick tick tick - brrr - tick

I try to get rid of my plague - but I left some of his leg
He grew back pretty quick - so I stab the little prick
Now I cut my head - in the morning I'll be dead
Even after still - he'll find someone to kill

and he'll get you ...
Tap to rate this tab
 
# A B C D E F G H I J K L M N O P Q R S T U V W X Y Z