Song name
# A B C D E F G H I J K L M N O P Q R S T U V W X Y Z

Ween - Frank tab

Frank by: Ween from The Pod

Tuning: Standard

Verse:
e|----------------|
B|----------------|
G|----------------|
D|----------------|
A|---3----1----0--|
E|-1----1----1----|

Chorus:
e|----------------------------------------------|
B|----------------------------------------------|
G|----------------------------------------------|
D|----------3--5--3--5--3--X3-----5B--77777-5---|
A|----------3--5--3--5--3-----------------------|
E|-1---3/5--------------------------------------|
Tap to rate this tab
 
# A B C D E F G H I J K L M N O P Q R S T U V W X Y Z