Song name
# A B C D E F G H I J K L M N O P Q R S T U V W X Y Z

Ween - Tried And True tab

first solo
e----8--7--5--------------------------0----1-----3r1--x---|
b-------------8--6--5--3--1--0--------3---------------3---|
g-------------------------------------2---------------2---|
d-------------------------------------0---------------0---|
a---------------------------------------------------------|
E---------------------------------------------------------|

e----8--7--5---------------------------------------------------------------|
b-------------8--6--5--3--1--0--------3b4---3b4---3b4---1--3--1------------|
g-----------------------------------------------------------------2---0----|
d--------------------------------------------------------------------------|
a--------------------------------------------------------------------------|
E--------------------------------------------------------------------------|

e----8--7--5---------------------------0--0--1---0--3--1--0----|
b-------------8--6--5--3--1--0---------3---------3-------------|
g--------------------------------------2---------2-------------|
d--------------------------------------0---------0-------------|
a--------------------------------------------------------------|
E--------------------------------------------------------------|

e----8--7--5-------------------------------------------------------------|
b-------------8--6--5--3--1--0---------3b4--1--3b4--3----3b4--1--3b4---3-|
g------------------------------------------------------------------------|
d------------------------------------------------------------------------|
a------------------------------------------------------------------------|
E------------------------------------------------------------------------|

second solo
e-----------------------------------------------------------------------------------------|
b-----------------------------------------------------------------------------------------|
g---10--7--9---5--5--5--5--7--4------10--10--10--10--10--9--7 / 14--14--14--14--14--10-7--|
d-----------------------------------------------------------------------------------------|
a-----------------------------------------------------------------------------------------|
E-----------------------------------------------------------------------------------------|
Tap to rate this tab
 
# A B C D E F G H I J K L M N O P Q R S T U V W X Y Z