Song name
# A B C D E F G H I J K L M N O P Q R S T U V W X Y Z

Ween - Roses Are Free tab

------------------------------------------------------------------------------
			     Roses Are Free - Ween
------------------------------------------------------------------------------
Tabbed by: SyntheticSocks
Email: ChumbaWumba45@yahoo.com

Tuning: Standard EADGBE


***This is the Eb Riff***
e|=====6========6========6========6====
B|===8===8====8===8====8===8====8===8==
G|=8========8========8========8========
D|=====================================
A|=====================================
E|=====================================

Roses Are Free

Bb                     F                 Eb riff
Take a piece of tinsel and put it on the tree
Bb                      F                           Eb riff
Cut a slab of melon and pretend that you still love me
Bb                      F                 Eb riff
Carve out a pumpkin and rely on your destiny
Bb                             F                     Eb riff
Get in your car and cruise the land of the brave and free
F                   Gm          Ab              A          Bb
But don't forget to understand exactly what you put on the tree
F                 Gm              Ab                 A         Bb
Don't believe the florist when he tells you that the roses are free

Take a wrinkled raisan and do with it what you will
Push it into third if you know you're gonna climb a hill
Eat plenty of lasagna 'til you know that you've had your fill
Resist all the urges that make you wanna go out and kill

But don't forget to understand exactly what you put on the tree
Don't believe the florist when he tells you that the roses are free

***Solo***

E-|-------------12-13--15-13-12-13---18-17-15-13-15-13---------|
B-|-------14h15----------------------------------------16-15---|
G-|-14h15------------------------------------------------------|
D-|------------------------------------------------------------|
A-|------------------------------------------------------------|
E-|------------------------------------------------------------|

E-|-17-18---------------------17h18-------------------------------------|
B-|-------17-18---------------------17h18-------------------------------|
G-|-------------18-19-14-15---------------18h19-14h15-------------------|
D-|---------------------------------------------------14h15p14----------|
A-|------------------------------------------------------------15h16p15-|
E-|---------------------------------------------------------------------|

E-|--5h6-----------------------------------------------------------------|
B-|------5h6-------------------------------------------------------------|
G-|----------6h7---------------------5-b-7---5--3--3-----5--3----5--3----|
D-|--------------7h8----------------------------------5-------5-------5--|
A-|------------------7h8p7-----------------------------------------------|
E-|------------------------8b9r8-----------------------------------------|
                                     distorted solo

E-|-------------------------------------------|--------------------------|
B-|-------------------------------------------|--------------------------|
G-|------3-------3-------3----3-5--5b7---5-3--|--5--5-7--7-8--8-9--9-10--|
D-|--3h5---5-3h5---5-3h5---5------------------|--------------------------|
A-|-------------------------------------------|--------------------------|
E-|-------------------------------------------|--------------------------|
    little fill in the distorted solo           end of the solo

Throw that pumpkin at the tree
Unless you think that pumpkin holds your destiny
Cast it off into the sea, bake that pie and eat it with me
Tap to rate this tab
# A B C D E F G H I J K L M N O P Q R S T U V W X Y Z