Song name
# A B C D E F G H I J K L M N O P Q R S T U V W X Y Z

Ween - Fiesta tab

-------------------------------------------------------------------------------
                             Fiesta - Ween
-------------------------------------------------------------------------------

Tuning:Standard

e|12-12-10---------------12-12-10-----------------12-12-10----------10-12-------------------|
B|---------13-10------------------13-10----10-13-----------13-10-13-------------------------|
G|---------------12-10------------------12--------------------------------12----------------|
D|------------------------------------------------------------------------------------------|
A|------------------------------------------------------------------------------------------|
E|------------------------------------------------------------------------------------------|



e|12-12-10---------------12-12-10-----------------12-12-10----------------------------------|
B|---------13-10------------------13-10----10-13-----------13----10-13--13-11-13--13-11-13--|
G|---------------12-10------------------12--------------------12----------------------------|
D|------------------------------------------------------------------------------------------|
A|------------------------------------------------------------------------------------------|
E|------------------------------------------------------------------------------------------|

This is only the horn part and repeats for a majority of the song
Tap to rate this tab
# A B C D E F G H I J K L M N O P Q R S T U V W X Y Z