Song name
# A B C D E F G H I J K L M N O P Q R S T U V W X Y Z

Ween - Things You Already Know tab

-------------------------------------------------------------------------------
                      Things You Already Know - Ween
-------------------------------------------------------------------------------
Tabbed by: abelnation

Tuning: Standard EADGBe

VERSE:
Bm
Grab that wheel
Bm                                       E
And I'll sail you 'round the world in my yacht
Cm        F#
Oh I've got it girl
B     A#m     G#m     F#m      C#m                F#           B
I can promise you the moon and stars, if you just give me your heart.

VERSE 2 (same as before):
See there,
Over there, just back beyond the changing room
Yeah those two
Think they got it made, like I do, aren't they jealous of you.

CHORUS:
Em                  B             F#m               E
And don't bother to question, the thing you already know...
                B
Like I love you so!

VERSE 3:
Sundown,
And the maids got their fists up in the air
Oh they're everywhere
I'll show you how to diffuse the bomb, if you just give me your heart.

VERSE 4:
What's that?
You say you had some feelings hid away.
I can handle this today.
I may be the man, you are mine, so just give me your arm.

CHORUS:
And don't bother to question, the thing you already know...
Like I love you so

SOLO: (chords the same as verse 2X plus a chorus)

e|----9b-7------7-7-9-7-9-7-9-10-9-7---------7-9-9b-7-9----------------------|
B|----------7------------------------9---------------------------------------|
G|---------------------------------------------------------------------------|
D|---------------------------------------------------------------------------|
A|---------------------------------------------------------------------------|
E|---------------------------------------------------------------------------|

e|---------11-14-14-11-14-16-14-11-------------------------------------------|
B|---------------------------------14--12-14-12-14--14b-14-12----------------|
G|---------------------------------------------------------------------------|
D|---------------------------------------------------------------------------|
A|---------------------------------------------------------------------------|
E|---------------------------------------------------------------------------|

e|----9b-7------7-7-9-7-9-7-9-10-9-7---------7-9-9b-7-9----------------------|
B|----------7------------------------9---------------------------------------|
G|---------------------------------------------------------------------------|
D|---------------------------------------------------------------------------|
A|---------------------------------------------------------------------------|
E|---------------------------------------------------------------------------|

e|---------11-14-14-11-14-16-14-11-----16-14-16--11h14p11--------------------|
B|---------------------------------14----------------------14-12----12-------|
G|---------------------------------------------------------------13----------|
D|---------------------------------------------------------------------------|
A|---------------------------------------------------------------------------|
E|---------------------------------------------------------------------------|

e|----9b-7------------11-----7-9--9-7-9b-9-7---------------------------------|
B|----------8--8-8-7---------------------------7-9999-9b-9-7-----------------|
G|---------------------------------------------------------------------------|
D|---------------------------------------------------------------------------|
A|---------------------------------------------------------------------------|
E|------------------------------------------------------------12\2--222------|

VERSE 5:
Screw you!
If you want to be with that dude in the grass skirt
Oh feeling won't be hurt
Your still deep beneath the dirt, guess I won't have your heart.

B         A#m      G#m     F#m      C#m                F#           B
Could've  promised you the moon and stars, if you just give me your heart.



************************************

| /   slide up
| \   slide down
| h   hammer-on
| p   pull-off
| ~   vibrato
| +   harmonic
| x   Mute note
| b   Bend
| pb  Pre-bend
| br  Bend release
| pbr Pre-bend release
| brb Bend release bend

************************************
Tap to rate this tab
# A B C D E F G H I J K L M N O P Q R S T U V W X Y Z