Song name
# A B C D E F G H I J K L M N O P Q R S T U V W X Y Z

Ween - Freedom Of 76 tab

These are the proper voicings for the Freedom of '76 chords. Deaner really knew how to 
give 'em flavor.

The strum patterns are simple so I'll leave those to you.

   E   F#m7 G#m7  A6   C6   B7   D6    C#7  Esus4  E
E--4----2----4------------------------------------------|
B--0----5----7----5----8---------10----------10----9----|
G--4----2----4----6----9----8----11----10----9-----9----|
D--2----2----4----4----7----7----9-----9-----9-----9----|
A--2----4----6-------------------------------0-----0----|
E--0----2----4----5----8----7----10----9----------------|

 Short walk up.       B7#9
E----------------------------|
B----------------------15----|
G----------------------14----|
D---14-------14--------13----|
A-12--12-13----13--14--14----|
E----------------------------|

Rinse and repeat throughout the song.


Any concerns? Shoot me a message on my UG profile.
Tap to rate this tab
# A B C D E F G H I J K L M N O P Q R S T U V W X Y Z