Guitaretab - guitar tabs
Song name
# A B C D E F G H I J K L M N O P Q R S T U V W X Y Z

Ween - Transdermal Celebration tab

                .:*~Transdermal Celebration~*:.

Song By: Ween
Music by: Mickey Melchiando
Lyrics by: Mickey Melchiando and Aaron Freeman
Tabbed by: ShyGuy {IZAIAH}

Tuning: E (Standard)

e|-0-0-0-0---0---0-0-0-0---0---0-0-0---|
B|-2s4s2-0---0---0-0-0-0---0---0-0-0---|
G|-----------2---1-2-1-2-s-4-s-2-1-1---| X2
D|---------------------------------2---|
A|---------------------------------2---|
E|-------------------------------------|

chorus
|-0---0---0---0-0-0-0|
|-2---2---0---2-2-2-2|
|-2---2---2---2-2-2-2| X2
|-2---2---2---2-2-2-2|
|-0---0---0---0-0-0-0|
|--------------------|

|-0---0---0---0-0-0-0|
|-0---0---0---0-0-0-0|
|-1---1---1---1-1-1-1| X2
|-2---2---2---2-2-2-2|
|-2---2---2---2-2-2-2|
|--------------------|    

*use your 1st finger
 to bar the 2 fret

|-2---2---2---2-2-2-2||-0---0---0---0-0-0-0||-0---0---0---0-0-0-0|
|-3---3---3---3-3-3-3||-2---2---2---2-2-2-2||-0---0---0---0-0-0-0|
|-4---4---4---4-4-4-3||-2---2---2---2-2-2-2||-1---1---1---1-1-1-1|
|-4---4---4---4-4-4-4||-2---2---2---2-2-2-2||-2---2---2---2-2-2-2|
|-2---2---2---2-2-2-2||-0---0---0---0-0-0-0||-2---2---2---2-2-2-2|
|-2---2---2---2-2-2-2||--------------------||--------------------|

riff*
|------------------------|  |-----------------|
|-4-4--4-4--4-4--4s5s4-2-|  |-7--5--3--2--0---|
|------------------------|X2|-----------------|
|------------------------|  |-----------------|
|------------------------|  |-----------------|
|------------------------|  |-----------------|
^_____________________________________________^X2

|-2---2---2---2-2-2-2||-0---0---0---0-0-0-0||-0---0---0---0-0-0-0|
|-3---3---3---3-3-3-3||-2---2---2---2-2-2-2||-0---0---0---0-0-0-0|
|-4---4---4---4-4-4-3||-2---2---2---2-2-2-2||-1---1---1---1-1-1-1|
|-4---4---4---4-4-4-4||-2---2---2---2-2-2-2||-2---2---2---2-2-2-2|
|-2---2---2---2-2-2-2||-0---0---0---0-0-0-0||-2---2---2---2-2-2-2|
|-2---2---2---2-2-2-2||--------------------||--------------------|

|-------------------------------------------|
|-------------------------------------------|
|-------------------------------------------|
|-14-14-14--13-13-13--11-11-11--9-9-9--7--6-|
|-0--0--0---0--0--0---0--0--0---0-0-0--0--0-|
|-12-12-12--11-11-11--9--9--9---7-7-7--5--4-|

|-0----0----0-||-0----0----0--|
|-2----2----2-||-0----0----0--|
|-2----2----2-||-1----1----1--|
|-2----2----2-||-2----2----2--|X3
|-0----0----0-||-2----2----2--|
|-------------||-0----0----0--|
 
SOLO EL GRANDE!
|---------------|---------------------|-4-4--0-0-4-0-0-4-0-0-b4-|
|-4--4--4--5----|-4--4--4--5----4-----|-------------------------|
|-------------6-|-------------6---6---|-------------------------|
|---------------|-------------------5-|-------------------------|
|---------------|---------------------|-------------------------|
|---------------|---------------------|-------------------------|
[ Tab from: http://www.guitaretab.com/w/ween/53947.html ]
|-11--11--11--12-----|-11--11--11--12-----|-11-----------16--16--b16-|
|-----------------14-|-----------------14-|-----14-------------------|
|--------------------|--------------------|---------12---------------|
|--------------------|--------------------|--------------------------|
|--------------------|--------------------|--------------------------|
|--------------------|--------------------|--------------------------|

|--14-14-14-15--------------------------|
|--------------15--14-14-14-15----14----|
|------------------------------14----14-|
|---------------------------------------|
|---------------------------------------|
|---------------------------------------|

|-----------b14-|-16-14-----------------|
|------b12------|-------16-14-----------|
|-b13-----------|-------------16-14-s13-|
|---------------|-----------------------|
|---------------|-----------------------|
|---------------|-----------------------|

|-------------14-16-14---|
|-------14-16----------16|
|-14-16------------------|
|------------------------|
|------------------------|
|------------------------|

|-0---0---0---0-0-0-0|
|-2---2---0---2-2-2-2|
|-2---2---2---2-2-2-2| X2
|-2---2---2---2-2-2-2|
|-0---0---0---0-0-0-0|
|--------------------|

|-0---0---0---0-0-0-0|
|-0---0---0---0-0-0-0|
|-1---1---1---1-1-1-1| X2
|-2---2---2---2-2-2-2|
|-2---2---2---2-2-2-2|
|--------------------|

riff*
|------------------------|  |-----------------|
|-4-4--4-4--4-4--4s5s4-2-|  |-7--5--3--2--0---|
|------------------------|X2|-----------------|
|------------------------|  |-----------------|
|------------------------|  |-----------------|
|------------------------|  |-----------------|
^_____________________________________________^X2

|-2---2---2---2-2-2-2||-0---0---0---0-0-0-0||-0---0---0---0-0-0-0|
|-3---3---3---3-3-3-3||-2---2---2---2-2-2-2||-0---0---0---0-0-0-0|
|-4---4---4---4-4-4-3||-2---2---2---2-2-2-2||-1---1---1---1-1-1-1|
|-4---4---4---4-4-4-4||-2---2---2---2-2-2-2||-2---2---2---2-2-2-2|
|-2---2---2---2-2-2-2||-0---0---0---0-0-0-0||-2---2---2---2-2-2-2|
|-2---2---2---2-2-2-2||--------------------||--------------------|

|-------------------------------------------|
|-------------------------------------------|
|-------------------------------------------|
|-14-14-14--13-13-13--11-11-11--9-9-9--7--6-|
|-0--0--0---0--0--0---0--0--0---0-0-0--0--0-|
|-12-12-12--11-11-11--9--9--9---7-7-7--5--4-|

|-0----0----0-||-0----0----0--|
|-2----2----2-||-0----0----0--|
|-2----2----2-||-1----1----1--|
|-2----2----2-||-2----2----2--|X3
|-0----0----0-||-2----2----2--|
|-------------||-0----0----0--|

*slow down at the end
e|-0-0-0-0---0---0-0-0-0---0---0-0-0---|
B|-2s4s2-0---0---0-0-0-0---0---0-0-0---|
G|-----------2---1-2-1-2-s-4-s-2-1-1---| X2
D|---------------------------------2---|
A|---------------------------------2---|
E|-------------------------------------|


Guide:
b: bend
s: slide

With Awesomeness ShyGuy {IZAIAH}
Related for Transdermal Celebration tab
Advertisement will be closed in 10 seconds