Song name
# A B C D E F G H I J K L M N O P Q R S T U V W X Y Z

Ween - Ocean Man tab

00:49
--------------------------------------------------------------------|
-9----9------------9----9---------------------------------9---------|
-11b--11b----------11b--11b--11p9----9-11-------------------11------|
----------------------------------11------9--9--9-9-11-9------------|
--------------------------------------------------------------------|
--------------------------------------------------------------------|

00:55
---------------|
---------------|
-------9h11p9--|
--9h11---------|
---------------|
---------------|

00:56
-------------------------------------------------------|
-----12--------12-------12-------12-------12-------12--|
-11b(13)---11b(13)--11b(13)--11b(13)--11b(13)--11b(13)-|
-------------------------------------------------------|
-------------------------------------------------------|
-------------------------------------------------------|

00:59
-------------------------------------------------|
----------------------------------9--------------|
-(13)r11p9---9-11-------------------11------9----|
-----------11------9--9--9-9-11-9--------11---11-|
-------------------------------------------------|
-------------------------------------------------|

1:04
-------------------------------------------------------|
----------------9-------------------------------9------|
-9--9--9-9-11-9---11-------9-----9--9--9-9-11-9---11---|
------------------------11---11------------------------|
-------------------------------------------------------|
-------------------------------------------------------|

1:08
---------------------------------|
-9b(10)-(10)-(10)-(10)-r9--------|
---------------------------11-9--|
---------------------------------|
---------------------------------|
---------------------------------|
Tap to rate this tab
# A B C D E F G H I J K L M N O P Q R S T U V W X Y Z