Song name
# A B C D E F G H I J K L M N O P Q R S T U V W X Y Z

Ween - Polka Dot Tail tab

Polka Dot Tail - Ween

Tuning: Standard
Tab: Rhys Gerwin

Chords:
A      002220
E      022100
D      x00232
Dsus 4 552xxx

INTRO: Dsus4

VERSE I:

        A                  
Did you ever see a whale with a polka dot tail 

        E
Did you ever seen a man with eight fingers on his hand 

        D
Did you have to dry your eye when you saw that puppy fly 

   E   A                E        
Oh no, tell me it ain't so

N.C. (FX)

VERSE II: 

         A
Have you ever tried to shrink like a ice cube in the sink 

         E
Have you ever tried to see what lies hidden in the tree 

         D
Have you ever made a flan and squished it in your hand 

   E   A                E
Oh no, tell me it ain't so 

N.C. (FX)
Billy 

SOLO I:(Small Reverb/Heavy Tape Delay)

e|--------------------------------|
B|----12b14--------12b14----------|
G|--------------------------------|
D|--------------------------------|
A|--------------------------------|
E|--------------------------------|
                           
|--------------------------------------------------------------|
|-----12b14-12b--12b-12b-12b-12b-12b-12b-12b-12b-12b-10--12p10-|
|--------------------------------------------------------------|
|--------------------------------------------------------------|
|--------------------------------------------------------------|
|--------------------------------------------------------------|
     
|--------------------|--------------------------------|
|--------------------|--------10---12-9---------------|
|-11b13--------------|--------------------11-9--------|
|--------------------|--------------------------------|
|--------------------|--------------------------------|
|--------------------|--------------------------------|
              
|-----------------------|---------------------------------------|
|-----------------------|------------------------------------15-|
|-----------------------|-----------------------------14-16-----|
|-9b11------------------|-----------------------14b16-----------|
|-----------12----------|----------14-16-14-16------------------|
|-----------------------|---------------------------------------|

|-----------------------------17----|--14b16------------|
|----14----------------17b19--------|-------------------|
|-----------------------------------|-------------------|
|-----------------------------------|-------------------|
|-----------------------------------|-------------------|
|-----------------------------------|-------------------|

[Repeat Verse II and then Verse I] 

Help me

SOLO II:(Small Reverb/Phase Tremolo)
           
e|-------|-----------------------------------|
B|-------|--------------12----12b14----------|
G|-------|--------14-------------------------|
D|----12/|--14-------------------------------|
A|-------|-----------------------------------|
E|-------|-----------------------------------|

|------------------------------------------|
|-------12b14--14r12--12b14r12b14-12-------|
|--------------------------------------14--|
|------------------------------------------|
|------------------------------------------|
|------------------------------------------|
  
|---------------------------|
|---------------------------|
|-11b13------9h11p9~--------|
|---------------------------|
|---------------------------|
|---------------------------|

|--------------------------------------------------|
|--------------------------------17--19b21--19b21--|
|-----------------16--18--b21----------------------|
|----------16-19-----------------------------------|
|------/19-----------------------------------------|
|--------------------------------------------------|

|------------------------------------------|
|-19b21r19---17h19-17~-----------17--19----|
|----------------------------18------------|
|------------------------------------------|
|------------------------------------------|
|------------------------------------------|

|-16----17----19----19b21--19b21--19b21--19b21--|
|-----------------------------------------------|
|-----------------------------------------------|
|-----------------------------------------------|
|-----------------------------------------------|
|-----------------------------------------------|
   
|-19b21----19--17--16h17p16----16--------------|
|---------------------------19----19-17--------|
|---------------------------------------18b21--|
|----------------------------------------------|
|----------------------------------------------|
|----------------------------------------------|
                                
|-----------------------|
|-----------------------|
|-18r16--14-------------|
|------------16b18--14--|
|-----------------------|
|-----------------------|

Enjoy, Biatch!
Tap to rate this tab
# A B C D E F G H I J K L M N O P Q R S T U V W X Y Z