Song name
# A B C D E F G H I J K L M N O P Q R S T U V W X Y Z

Ween - Stacey tab

------------------------------------------------------------------------------
			     Stacey - Ween
------------------------------------------------------------------------------
Tabbed by: SyntheticSocks
Email: ChumbaWumba45@yahoo.com

Tuning: Standard EADGBE


E-------------------------------------------|-----------------|
B-------------------------------------------|--9-----/14------|
G-------------------------------------------|--9-----/14------|
A-------------------------------------------|--9-----/14------|
D-----7--7-------7--7-------7--7------7--7--|--7-----/12------|
E--7----------7----------7---------7--------|-----------------|


***Solo***

-----------------------------------------------------------------------------|
-----------------------------------------------------------------------------|
------------------12-14b-12-------------5-7b-5-------------------12-14b-12---|
------------12h14-------------------5h7--------------------12h14-------------|
------12h14---------------------5h7------------------12h14-------------------|
12h15-----------------------5h8----------------12h15-------------------------|

------------------------------------------------------------------------------------|
------------------------17-19b-17---------------12-14b-12-----------5-7b-5----------|
------------------17h19-------------------12h14-----------------5h7-----------------|
------------17h19-------------------12h14------------------5h7----------------------|
------17h20-------------------12h15--------------------5h8--------------------------|

After this it goes back into the beginning "7" riff. Then Deaner rips it up and it goes 
into the "Main" riff.

Boognish Bless
Tap to rate this tab
# A B C D E F G H I J K L M N O P Q R S T U V W X Y Z