Song name
# A B C D E F G H I J K L M N O P Q R S T U V W X Y Z

Ween - At Your Party tab

At your Party - Words and music by Ween
Tabbed from Gene Ween Solo show @ Falls Church, VA on 03/29/07

Verse :


     Em    D6   Am   Em

e:---7-----7----5----7----|
b:---8-----7----5----8----|
G:---9-----7----5----9----|
D:---9-----7----7----9----|
A:---7-----x----7----7----|
E:---7-----x----5----7----|

Chorus :

     C     G    Am   Em   Am  Em

e:---0-----3----0----0----0----0----|
b:---1-----0----1----0----1----0----|
G:---0-----0----2----0----2----0----|
D:---2-----0----2----2----2----2----|
A:---3-----2----0----2----0----2----|
E:---x-----3----x----7----x----0----|

Tabbed by GABOU !!! (gabou@gabouprod.com)
Tap to rate this tab
# A B C D E F G H I J K L M N O P Q R S T U V W X Y Z