Song name
# A B C D E F G H I J K L M N O P Q R S T U V W X Y Z

Ween - Stallion Part 1 tab

THE STALLION (PT.1) - words and music by Ween
**From the Album "The Pod"

I tabbed this from the All request Live CD...


First part :
 
      E  harmonics

e||--------12----------------------------------------------||
B||--------12----------------------------------------------||
G||--------12----------------------------------------------||
D||--------------------------------------------------------||
A||---------------------7--10--7-slow bend-----------------||
E||---0----------------------------------------------------||

Second part :

      A   A   A   A     A A A A B B C  C

e||---5---5---5---5-----5-5-5-5-7-7-8--8-------------||
B||---5---5---5---5-----5-5-5-5-7-7-8--8-------------||
G||---6---6---6---6-----6-6-6-6-8-8-9--9-------------||
D||---7---7---7---7-----7-7-7-7-9-9-10-10------------||
A||---7---7---7---7-----7-7-7-7-9-9-10-10------------||
E||---5---5---5---5-----5-5-5-5-7-7-8--8-------------||

Third Part


e||---7----3----0----3------------------------------------------||
B||------------------------7----4----0----4---------------------||
G||-------------------------------------------------------------||
D||-------------------------------------------------------------||
A||-------------------------------------------------------------||
E||-------------------------------------------------------------||


Tabbed by GABOU !!! (gabou@gabouprod.com)
Tap to rate this tab
# A B C D E F G H I J K L M N O P Q R S T U V W X Y Z