Song name
# A B C D E F G H I J K L M N O P Q R S T U V W X Y Z

Ween - I Dont Want It tab

TRIED AND TRUE - words and music by Ween
**from the album "All request live"


Hi ! This is a version of the solo out of Live gigs (all request show :-) ),
it's not exactly the same on the original track but it would be a good guide.
Here it is :

First part :
                                          Then play aroun Dm

e:--8--7--5-------------------------  --1--1--------3po1-----------|
B:--x--------8--6--5----------------  --3-----3-----------3-----3--|
G:--------------------7--5--7--4~---  --2--------2-----------2-----|
D:----------------------------------  --0--------------------------|
A:----------------------------------  -----------------------------|
E:----------------------------------  -----------------------------|

                                                                          x2

e:--8--7--5-------------------------  -----------------------------|
B:--x--------8--6--5----------------  -----------------------------|
G:--------------------7--5--7--4~---  --7br--5--7br----7br--5--7br-|
D:----------------------------------  -----------------------------|
A:----------------------------------  -----------------------------|
E:----------------------------------  -----------------------------|

Second part :


e:----------------------------------------------------------------------------|
B:------------------------------------------------10-11-10--------------------|
G:--10-10-10-10-10-12-14-12-10-9-9-7-9----9-10-12----------12-10-9---9-9-7-9--|
D:----------------------------------------------------------------------------|
A:----------------------------------------------------------------------------|
E:----------------------------------------------------------------------------|
  I can't tab the timing
e:---------------------------------------------|
B:-----10----10----10-8-8-8-10-8-8-8-8--8-8-8--|
G:--10----10----10----9-9-9-9--9---------------|
D:---------------------------------------------|
A:---------------------------------------------|
E:---------------------------------------------|

  so I may miss some notes (B:-8- or -6------|
e:-------------------------------------------|
B:--8-8-8--6-6-6--6-6-6-6s5~-----------------|
G:-------------------------------------------|
D:-------------------------------------------|
A:-------------------------------------------|
E:-------------------------------------------|


Tabbed by GABOU !!! (gabou@gabouprod.com)
Tap to rate this tab
# A B C D E F G H I J K L M N O P Q R S T U V W X Y Z