Song name
# A B C D E F G H I J K L M N O P Q R S T U V W X Y Z

Ween - Big Jilm tab

Big Jilm by: Ween

Tuning: Standard

Verse (Listen to the live version to get the beat right)

"Rollin' and a wheelin'..."
e|--------0------------0---0----|
B|--------0------------0---0----|
G|--2-----0---2--2-----0---0----|
D|--2---------2--2--------------|
A|--1---------1--1--------------|
E|--0---------0--0--------------|

"BIG JILM!"
G|-5555-\-10-----------|
D|-6666-\-11X4---------|    X 2
A|-6666-\-11-----------|
E|-4444-\--9-----------|

Break Down
"What's The Biggest Thing you ever did done see?"
e|-----------------------------------------|
B|-----------------------------------------|
G|-----------------------------------------|
D|-4-----6--7-----6---4-----6---7----9-----|
A|-4-X7--6--7-X7--6---4-X7--6---7-X3-9-X3--|
E|-2-----4--5-----4---2-----4---5----7-----|


Good day!

SyntheticSocks@gmail.com
Tap to rate this tab
 
# A B C D E F G H I J K L M N O P Q R S T U V W X Y Z