Song name
# A B C D E F G H I J K L M N O P Q R S T U V W X Y Z

Weeping Willows - The Burden tab

------------------------THE BURDEN, WEEPING WILLOWS--------------------------


Kopierad från Swedetab.se, där den skapades av Simon Gustafsson. 

Verse/Intro:
e|--3-----3--5-----5--7-----7--5-----5--3-----3--2-----2--0-----0--|
B|----0--------0--------0--------0--------0--------0--------0------|
G|------0--------0--------0--------0--------0--------0--------0----|
D|--2--------4--------5--------4--------2--------0-----------------|
A|--------------------------------------------------------3--------|
E|-----------------------------------------------------------------|

e|---------------------------------------2--|
B|-3-----3--1-----1--1-----1--1-----1--0----|
G|---0--------0--------0--------0-----------|
D|-----0--------2--------2--------2---------|
A|-2--------3--------3--------3--------2----|
E|------------------------------------------|

Between verse 1-2 and 3-4:
e|--3-----3--5-----5--3-----3--2-----2--|
B|----0--------0--------0--------0------|
G|------0--------0--------0--------0----|
D|--2--------4--------2--------0--------|
A|--------------------------------------|
E|--------------------------------------|

Verse 1:
I sat down by the solitary river
In the shadow of a weeping willow tree
It seems like you have changed in the past week
Do you still love me

Verse 2:
We've been together so long that I wonder
And my mind is being fuelled by disbelief
I've gotta hear you say it straight to me
That you still love me

Chorus:
Em                            C
I need your loving words more often
C                          Em
Longing makes the heart go soft
Em                            C                       
I'm worried that you might be lost
Em                            C
I need to feel the love you give me
C                        Em
And the warmth your body brings me
Em                     C
Need to see it in your eyes
C                Am
That you still love me
Do you still love me

Verse 3:
Time can be a difficult opponent
Things can always change and make us weak
And as I sit alone I nearly weep
Do you still love me

Verse 4:
Jealousy is such a heavy burden
Sneaks into my soul and never sleeps
I've gotta hear you whisper it to me
That you still love me

Chorus:
Em                            C
I need your loving words more often
C                          Em
Longing makes the heart go soft
Em                            C                       
I'm worried that you might be lost
Em                            C
I need to feel the love you give me
C                        Em
And the warmth your body brings me
Em                     C
Need to see it in your eyes
C                Am
That you still love me
Do you still love me
Do you still love me
Do you still love me
Do you still love me
Do you still love me

Outro:
e|--3-----3--5-----5--7-----7--5-----5--|
B|----0--------0--------0--------0------|
G|------0--------0--------0--------0----| x2
D|--2--------4--------5--------4--------| 
A|--------------------------------------|
E|--------------------------------------|

End on Em or 
e|--3-|
B|----|
G|----|
D|--2-| 
A|----|
E|----|
Tap to rate this tab
# A B C D E F G H I J K L M N O P Q R S T U V W X Y Z